:: Home > Tabs > D > Disciple > Mud Puddle

Disciple - Mud Puddle


This tab has not yet been rated for accuracy.To rate this tab, please visit the version of this guitar tab on it's home site, Christian Guitar Resources.

Click here for a plain text version of this song (for better printing)




#----------------------------------PLEASE NOTE---------------------------------#
#This file is the author's own work and represents their interpretation of the #
#song. You may only use this file for private study, scholarship, or research. #
#------------------------------------------------------------------------------#


Disciple - This Might Sting A Little - Mud Puddle
Copyright:Rugged Records 1999
Tabbed By BiptoN@charter.net

	Okay this song seems to be for the most part easy, this is the basic 
riff played through out the song, either one - two notes at a time or strummed

Eb |---------------------------------------------------------------------------
Bb |---0---------------0-------------------------------------------------------
Gb |--0---7----6------0----9-----5-------0------7-----6--------0-------9----5--
Db |-4---7---6---6---4----9----5---5---4---4---7----6---6----4---4----9---5---5
Ab |2---5---4~------2----7---3~-------2-------5---4--------2--------7---3------
Db |---------------------------------------------------------------------------

	You play this through twice, the second time end on the 

Eb |---------------------------------------------------------------------------
Bb |---------------------------------------------------------------------------
Gb |-4---x-x-x-x--4---x-x-x-x--2-2-2-2--4---x-x-x-x--4---x-x-x-x--/5-5-5-5-----
Db |-4---x-x-x-x--4---x-x-x-x--2-2-2-2--4---x-x-x-x--4---x-x-x-x--/5-5-5-5-----
Ab |-0h2-x-x-x-x--0h2-x-x-x-x--0-0-0-0--0h2-x-x-x-x--0h2-x-x-x-x--/3-3-3-3-----
Db |---------------------------------------------------------------------------

	The only thing that really happens that's different is the addtion of 
one chord they throw it in the main riff they use durin' the chorus, listen for 
the changes

Eb |---------------------------------------------------------------------------
Bb |---------------------------------------------------------------------------
Gb |-12------------------------------------------------------------------------
Db |-12------------------------------------------------------------------------
Ab |-10------------------------------------------------------------------------
Db |---------------------------------------------------------------------------


This song is real simple, just keep an ear out for the mutin' and strummin', I 
didn't put all 	the little notes in there cause I wanted you to have a little 
fun figurin' it all out ;)



Comments about this tab

To add a comment for this tab, please visit the version of this guitar tab on it's home site, Christian Guitar Resources.



© 2005 MickMel - All Right Reserved - Privacy Statement