:: Home > Tabs > D > Disciple > 1,2,Conductor

Disciple - 1,2,Conductor


This tab has not yet been rated for accuracy.To rate this tab, please visit the version of this guitar tab on it's home site, Christian Guitar Resources.

Click here for a plain text version of this song (for better printing)




#----------------------------------PLEASE NOTE---------------------------------#
#This file is the author's own work and represents their interpretation of the #
#song. You may only use this file for private study, scholarship, or research. #
#------------------------------------------------------------------------------#


Disciple - This Might Sting A Little - 1,2,Conductor
Copyright:Rugged Records 1999
Tabbed By BiptoN@charter.net

Okay as U know already perhaps from the other tabs I've done, I'm lazy and don't 
put all the bends and tweaks and every little note in the tabs I do. I look at 
tabs as a way to help get you in the ballpark so you can develope your ear ;)

     1 2	Play this 2x

Eb |----------------------------------------------------------------------
Bb |----------------------------------------------------------------------
Gb |----------------------------------------------------------------------
Db |---------4-4-4-4-5p4-44--4-4-4-4-5p4-44--4-4-4-4-5p4-44--4-4-4-4-5p4--
Ab |---------4-4-4-4-5p4-44--4-4-4-4-5p4-44--4-4-4-4-5p4-44--4-4-4-4-5p4--
Db |---------4-4-4-4-5p4-44--4-4-4-4-5p4-44--4-4-4-4-5p4-44--4-4-4-4-5p4--

	Play this and tie on par tof that first riff at the end a few times

Eb |----------------------------------------------------------------------
Bb |----------------------------------------------------------------------
Gb |----------------------------------------------------------------------
Db |----------------------------------------------------------------------
Ab |----------------------------------------------------------------------
Db |--3-3--3-4p3--3-3--3-7p5p3-(0)--3-3--3-4p3--3-3--(0)-7^---------------

	Now into this part here

Eb |----------------------------------------------------------------------
Bb |----------------------------------------------------------------------
Gb |-5---5---------5---5--------5---5----------5--------------------------
Db |-5-4-5-4~-xxxx-5-4-5-4------5-4-5-4~-xxxx--5-4-x-x-x-x--(0)-----------
Ab |-3-4-3-4~-xxxx-3-4-3-4--2~~-3-4-3-4~-xxxx--3-4-x-x-x-x--(0)-----------
Db |---4---4~-xxxx---4---4--------4---4~-xxxx----4-x-x-x-x--(0)-----------

	Listen to the plal mutin' here

Eb |---------------------------------------------------|------------------
Bb |--------8~~----------------------------------------|------------------
Gb |--------7~~----------------------------------------|------------------
Db |-2-4-5~~5~~44-44-44-44-444--2-4-5-4p2h4~~xxxx-xxxx-|--0-5-0-5-4~~-----
Ab |-2-4-5~~~~~44-44-44-44-444--2-4-5-4p2h4~~xxxx-xxxx-|--0-3-0-3-4~~-----
Db |-2-4-5~~~~~44-44-44-44-444--2-4-5-4p2h4~~xxxx-xxxx-|----------4~~-----

	Then Brad cuts out for a quick bit and comes back with 

Eb |----------------------------------------------------------------------
Bb |----------------------------------------------------------------------
Gb |--2-4-5~~-------------------------------------------------------------
Db |--2-------------------------------------------------------------------
Ab |--0-2-3~~-------------------------------------------------------------
Db |----------------------------------------------------------------------

That's pretty much it, now you have enough to finsh it. Like always Brad's 
sweet palm mutin' strum patterns are a key element to all of their songs, 
listen close ;)



Comments about this tab

To add a comment for this tab, please visit the version of this guitar tab on it's home site, Christian Guitar Resources.



© 2005 MickMel - All Right Reserved - Privacy Statement