:: Home > Tabs > D > Disciple > Golden Calf

Disciple - Golden Calf


This tab has not yet been rated for accuracy.To rate this tab, please visit the version of this guitar tab on it's home site, Christian Guitar Resources.

Click here for a plain text version of this song (for better printing)




#----------------------------------PLEASE NOTE---------------------------------#
#This file is the author's own work and represents their interpretation of the #
#song. You may only use this file for private study, scholarship, or research. #
#------------------------------------------------------------------------------#


Disciple - Golden Calf

Tabbed by BiptoN@charter.net

Okay as U know already perhaps from the other tabs I've done, I'm lazy and
don't put all the bends and tweaks and every little note in the tabs I do.
I look at tabs as a way to help get you in the ballpark so you can develope
your ear ;)

	Intro

Eb |----------------------------------------10^11v--------------------
Bb |----------------------------------------13^14v--------------------
Gb |------------------------------------------------------------------
Db |-0-1-1-2h3---0-1-1-2h3---0-1-1-2h3--------------------------------
Ab |-0-1-1-2h3---0-1-1-2h3---0-1-1-2h3--------------------------------
Db |-0-1-1-2h3---0-1-1-2h3---0-1-1-2h3--------------------------------

	Play 4x				Play 3x

Eb |-----------------------------|------------------------------------
Bb |-----------------------------|------------------------------------
Gb |-----------------------------|------------------------------------
Db |-3p0-0--0--6p0-0--0-1-1-2-3--|--3^p0--0-0--3^-p0--0-0-------------
Ab |-3p0-0--0--6p0-0--0-1-1-2-3--|--3^p0--0-0--3^-p0--0-0-------------
Db |-3p0-0--0--6p0-0--0-1-1-2-3--|--3^p0--0-0--3^-p0--0-0-------------

	Play 4x (leave the 2 out the last time )

Eb |------------------------------------------------------------------
Bb |------------------------------------------------------------------
Gb |------------------------------------------------------------------
Db |-3^p0--0-0--3^-p0--0-0---2----------------------------------------
Ab |-3^p0--0-0--3^-p0--0-0---2----------------------------------------
Db |-3^p0--0-0--3^-p0--0-0---2----------------------------------------

	And now for the Chorus play, liste to the cd cause it drops those
hammer-om pull-offs on one of the runs through

Eb |------------------------------------------------------------------
Bb |------------------------------------------------------------------
Gb |--------------------------8p7-----------------------------8p7-----
Db |-7---------7----------7h8--------7---------7----------7h8---------
Ab |-5-5-5-5-5-5-5-5-5-5-------------5-5-5-5-5-5-5-5-5-5--------------
Db |-0-0-0-0-0-0-0-0-0-0-------------0-0-0-0-0-0-0-0-0-0--------------

	The 2nd time you go through the chorus you end up playin' this 

Eb |--5----8-----7----------------------------------------------------
Bb |--5----11----10---------------------------------------------------
Gb |--7----10----9----------------------------------------------------
Db |--7----8-----7----5-3-xx-5-3-xx-5p3-xx--5-3-xx-5-3-xx-5p3---------
Ab |--5----8-----7----5-3-xx-5-3-xx-5p3-xx--5-3-xx-5-3-xx-5p3---------
Db |-------8-----7----5-3-xx-5-3-xx-5p3-xx--5-3-xx-5-3-xx-5p3---------

	Play 4x then I believe he does his lead here so u can play this
rhythm  for a bit

Eb |------------------------------------------------------------------
Bb |------------------------------------------------------------------
Gb |------------------------------------------------------------------
Db |-3^p0--0-0--3^-p0--0-0--------------------------------------------
Ab |-3^p0--0-0--3^-p0--0-0--------------------------------------------
Db |-3^p0--0-0--3^-p0--0-0--------------------------------------------

That's pretty much the jist of it, now for the ear part listen to his
little fills and what not when he plays those chords the second and third
time through on the chorus and the pattern and pause at the end, and have
fun :)



Comments about this tab

To add a comment for this tab, please visit the version of this guitar tab on it's home site, Christian Guitar Resources.



© 2005 MickMel - All Right Reserved - Privacy Statement