:: Home > Tabs > G > Ghoti Hook > Scared Am I

Ghoti Hook - Scared Am I


This tab has not yet been rated for accuracy.To rate this tab, please visit the version of this guitar tab on it's home site, Christian Guitar Resources.

Click here for a plain text version of this song (for better printing)




#----------------------------------PLEASE NOTE---------------------------------#
#This file is the author's own work and represents their interpretation of the #
#song. You may only use this file for private study, scholarship, or research. #
#------------------------------------------------------------------------------#


Song: Scared am I
Artist: Ghoti Hook
Album: Sumo Suprise
Lyrics by Ghoti Hook
(c) 1996 Tooth and Nail Records


Sup awesome christian rawkers.....well i was on this site and 
the tab for this song was pretty close but the intro was missing
stuff and the song had missing bridges and stuff so i put all that in.
Rock on and God Bless. -Nick-


* = play High chord
Intro:

Guitar 1

e |-----------------------------------
B |-----------------------------------
G |-----------------------------------
D |---11------11----------12-------9--
A |-9----9-12----12-12-12----12-11----
E |-----------------------------------

Guitar 2

A |--1/9------------------------|



    E*             
e |-----------------------------
B |-----------------------------
G |---11---11---11--9--9--------  
D |-----------------9-----------  
A |-9----9----9-----7-----------
E |-----------------------------


    F#             D              A              E 
e |--------------------------------------------------------------
B |--------------------------------------------------------------
G |----------------7-x-x-7-x-x-7---------------------------------
D |-4-x-x-4-x-x-4--7-x-x-7-x-x-7--7-x-x-7-x-x-7--2-x-x-2-x-x-2---
A |-4-x-x-4-x-x-4--5-x-x-5-x-x-5--7-x-x-7-x-x-7--2-x-x-2-x-x-2---
E |-2-x-x-2-x-x-2-----------------5-x-x-5-x-x-5--0-x-x-0-x-x-0---
    F#             D              A              E*
e |--------------------------------------------------------------
B |--------------------------------------------------------------
G |----------------7-x-x-7-x-x-7-----------------9-x-x-9-x-x-9---
D |-4-x-x-4-x-x-4--7-x-x-7-x-x-7--7-x-x-7-x-x-7--9-x-x-9-x-x-9---
A |-4-x-x-4-x-x-4--5-x-x-5-x-x-5--7-x-x-7-x-x-7--7-x-x-7-x-x-7---
E |-2-x-x-2-x-x-2-----------------5-x-x-5-x-x-5------------------
    F#             D              A              E
e |--------------------------------------------------------------
B |--------------------------------------------------------------
G |----------------7-x-x-7-x-x-7---------------------------------
D |-4-x-x-4-x-x-4--7-x-x-7-x-x-7--7-x-x-7-x-x-7--2-x-x-2-x-x-2---
A |-4-x-x-4-x-x-4--5-x-x-5-x-x-5--7-x-x-7-x-x-7--2-x-x-2-x-x-2---
E |-2-x-x-2-x-x-2-----------------5-x-x-5-x-x-5--0-x-x-0-x-x-0---
    F#             D              A              E*
e |--------------------------------------------------
B |--------------------------------------------------
G |----------------7-x-x-7-x-x-7-----------------9---
D |-4-x-x-4-x-x-4--7-x-x-7-x-x-7--7-x-x-7-x-x-7--9---
A |-4-x-x-4-x-x-4--5-x-x-5-x-x-5--7-x-x-7-x-x-7--7---
E |-2-x-x-2-x-x-2-----------------5-x-x-5-x-x-5------



------
(speed up)

guitar 1: (no mute) 
F# D A E
F# D A E*

guitar 2: (with the mute thing in between chords)
F# D A E
F# D A E*


First Verse:
F# D A E
F# D A E*
F# D A E
F# D A E*

(chorus)
F# A  E
 
F# A  E*



guitar 1:
e |-----------------------------------
B |-----------------------------------
G |-----------------------------------4x's
D |---11------11----------12-------9--
A |-9----9-12----12-12-12----12-11----
E |-----------------------------------

guitar 2:
F# A D B  4x's


guitar 1:
F# D A E
F# D A E*

guitar 2:
F#* (play same chord over guitar 1)


Second Verse:
F# D A E
F# D A E*
F# D A E
F# D A E*

**Chorus**


guitar 1:
e |-----------------------------------
B |-----------------------------------
G |-----------------------------------4x's
D |---11------11----------12-------9--
A |-9----9-12----12-12-12----12-11----
E |-----------------------------------

guitar 2:
F# A D B  4x's


    F#             D              A              E
e |--------------------------------------------------------------
B |--------------------------------------------------------------
G |----------------7-x-x-7-x-x-7---------------------------------
D |-4-x-x-4-x-x-4--7-x-x-7-x-x-7--7-x-x-7-x-x-7--2-x-x-2-x-x-2---
A |-4-x-x-4-x-x-4--5-x-x-5-x-x-5--7-x-x-7-x-x-7--2-x-x-2-x-x-2---
E |-2-x-x-2-x-x-2-----------------5-x-x-5-x-x-5--0-x-x-0-x-x-0---
    F#             D              A              E*
e |--------------------------------------------------
B |--------------------------------------------------
G |----------------7-x-x-7-x-x-7-----------------9---
D |-4-x-x-4-x-x-4--7-x-x-7-x-x-7--7-x-x-7-x-x-7--9---
A |-4-x-x-4-x-x-4--5-x-x-5-x-x-5--7-x-x-7-x-x-7--7---
E |-2-x-x-2-x-x-2-----------------5-x-x-5-x-x-5------


verse 3:
F# D A E
F# D A E*
F# D A E
F# D A E*


 (Chorus)


guitar 1:
e |-----------------------------------
B |-----------------------------------
G |-----------------------------------4x's
D |---11------11----------12-------9--
A |-9----9-12----12-12-12----12-11----
E |-----------------------------------

guitar 2:
F# A D B  4x's

End



Comments about this tab

To add a comment for this tab, please visit the version of this guitar tab on it's home site, Christian Guitar Resources.



© 2005 MickMel - All Right Reserved - Privacy Statement