:: Home > Tabs > T > Third Day > It's Alright

Third Day - It's Alright


This tab has been rated a 5.00 out of 5 for accuracy.
(3 votes)
To rate this tab, please visit the version of this guitar tab on it's home site, Christian Guitar Resources.

Click here for a plain text version of this song (for better printing)




#----------------------------------PLEASE NOTE---------------------------------#
#This file is the author's own work and represents their interpretation of the #
#song. You may only use this file for private study, scholarship, or research. #
#------------------------------------------------------------------------------#


IT'S ALRIGHT (GUITAR SOLO)
Third Day
Album: COME TOGETHER

Transcribed by Andrew Schell                 
sonnyschell@hotmail.com

Guitar Solo
  Gtr I
|-----------------|-----------------|
|-9-10-9-10s12----|-9-10-9-10s12----|
|-----------------|-----------------|
|-----------------|-----------------|
|-----------------|-----------------|
|-----------------|-----------------|


|-------------12--------|----------------------|
|-9-10--10s12-----10h12-|------10--9-----------|
|-----------------------|-------------11p9-11--|
|-----------------------|----------------------|
|-----------------------|----------------------|
|-----------------------|----------------------|
|
| Gtr II
|-----------------------|----------------------|
|-------------12--------|----------------------|
|-9-11--11s13-----11h13-|------11--9-----------|
|-----------------------|-------------11p9-11--|
|-----------------------|----------------------|
|-----------------------|----------------------|

                      (this harmonic is a pinch harmonic)
                      A.H.---------|     
|--------------------------------------|
|--------------------------------------|
|------------9-9-11-9-[11]b13r([11])-9-|
|-------9h11---------------------------|
|--------------------------------------|
|--------------------------------------|


|--------------------------------------------|
|----------12----12----12----12--------------|
|-----11p9-11b13-11b13-11b13-11b13r(11)-9h11-|
|--------------------------------------------|
|--------------------------------------------|
|--------------------------------------------|


|-------------|--------2h4---|----------------|
|-------------|------------5-|---4h5----------|
|-9-----------|--------------|-4--------------|
|----------1--|-2--4---------|-------2--------|
|-----2-4-----|--------------|----------------|
|-------------|--------------|----------------|


Tablature Legend
----------------
 h   - hammer-on
 p   - pull-off
 b   - bend
 r   - bend release (if no number after the r, then release immediately)
(#)  - note is held but not played
 s   - legato slide
[n]  - artificial harmonic

*********************************************************
*    Generated using Power Tab Editor by Brad Larsen    *
*           http://powertab.guitarnetwork.org           *
*********************************************************



Comments about this tab

mmggppmgp - 2005-05-12
MUY BUENO!!! i really appriciate this tab... lol jeez that pinch harmonic is driving me nutso lol, but its all fun, this tab is really good, I thank the lord for ur tabbing skillz...
AAFanGuy25 - 2005-08-23
Great tab! But, instead of ending on:

D I--2--I

try ending on:

D I--4/6--I

To add a comment for this tab, please visit the version of this guitar tab on it's home site, Christian Guitar Resources.



© 2005 MickMel - All Right Reserved - Privacy Statement