:: Home > Tabs > J > Justifide > No Reply

Justifide - No Reply


This tab has not yet been rated for accuracy.To rate this tab, please visit the version of this guitar tab on it's home site, Christian Guitar Resources.

Click here for a plain text version of this song (for better printing)




#----------------------------------PLEASE NOTE---------------------------------#
#This file is the author's own work and represents their interpretation of the #
#song. You may only use this file for private study, scholarship, or research. #
#------------------------------------------------------------------------------#


2001, ardent records
Justifide
no reply

"D" tuning
allen tosch
~:bend
():palm mute


Intro

D-8---6-9--9-8---8---6-9--6-8-9-4---2---4---2
A-6---6-6--6-6---6---6-6--6-8-9-2---2---2---2
D-6---6-6--6-6---6---6-6--6-8-9-2---2---2---2

verse
G----8----------
D-1--x--1--2-4-2
A-1--6--1--2-4-2
D-1-----1--2-4-2

chorus
D-11---2---9----
A-11---2---9----
D-11---2---9----

verse 2
G----------~8~
D-(8-6-9)-----
A-(6-6-6)-----
D-(6-6-6)-----

outro
G----8------------
D-1--x--1-2-4-2-(1)
A-1--6--1-2-4-2-(1)
D-1-----1-2-4-2-(1)

intro 4x
verse 4x
intro 4x
verse 4x
chorus 4x
verse 4x
verse2 14x
verse 8x
outro 1x



Comments about this tab

To add a comment for this tab, please visit the version of this guitar tab on it's home site, Christian Guitar Resources.



© 2005 MickMel - All Right Reserved - Privacy Statement