:: Home > Tabs > P > Plumb > Pluto

Plumb - Pluto


This tab has not yet been rated for accuracy.To rate this tab, please visit the version of this guitar tab on it's home site, Christian Guitar Resources.

Click here for a plain text version of this song (for better printing)




#----------------------------------PLEASE NOTE---------------------------------#
#This file is the author's own work and represents their interpretation of the #
#song. You may only use this file for private study, scholarship, or research. #
#------------------------------------------------------------------------------#


Song: Pluto
Artist: Plumb
CD: Plumb
From: Myron Marston and Jeremy Dillow
e-mail: marston@foxcomm.net
(C) 1997 Brentwood Music, Inc.

If you have not heard this song, it's the hidden track after
"Send Angels."

E-mail me with any comments, suggestions or corrections!

Chords:
  B5 A5 G#5 F#5 E5 G5 B  A
e---------------------7--5--
B---------------------7--5--
G---------------------8--6--
D-9--7---6---4--2--5--9--7--
A-9--7---6---4--2--5--9--7--
E-7--5---4---2--0--3--7--5--

Intro Riff 1:
e-7-7-5-5-4-4-2-2-0-0--------------
B---------------------3-3-2-2-0-0--
G---------------------------------- (repeat)
D----------------------------------
A----------------------------------
E----------------------------------

Intro Riff 2:
  B5  A5   G#5 F#5 E5 (play these last 3 chords extra fast)
 (play 4x)

Verse Riff 1:
 B  A (play 4x)

Verse Riff 2:
 E5 G5 (play 7x)
 B5

Chorus riff:
 B5 A5 E5 G5 A5 (play 2x)

Interlude 2 riff:
 B5 A5 (play 4x)

Bridge Riff:
e------------------------------------------9-9-7--
B-12-12-10-10-7-7-5-5-7----12-12-10-10-7-7--------
G------------------------------------------------- (play 2x)
D-------------------------------------------------
A-------------------------------------------------
E-------------------------------------------------

Verse 1: (use verse riff 1)

         (use verse riff 2)

Chorus: use chorus riff

Interlude: use intro riff 2

Verse 2: (use verse fiff 1)

         (use verse riff 2)

Repeat Chorus 2X

Interlude 2: use interlude 2 riff

Bridge: (use bridge riff)

Repeat Chorus 2X

Ending: use intro riff 2 (end by slinding down on a B5)



Comments about this tab

To add a comment for this tab, please visit the version of this guitar tab on it's home site, Christian Guitar Resources.



© 2005 MickMel - All Right Reserved - Privacy Statement