:: Home > Tabs > T > Third Day > Give

Third Day - Give


This tab has been rated a 5.00 out of 5 for accuracy.
(1 vote)
To rate this tab, please visit the version of this guitar tab on it's home site, Christian Guitar Resources.

Click here for a plain text version of this song (for better printing)




#----------------------------------PLEASE NOTE---------------------------------#
#This file is the author's own work and represents their interpretation of the #
#song. You may only use this file for private study, scholarship, or research. #
#------------------------------------------------------------------------------#


Song: "Give"
Album: "Time"
Artist: Third Day
Copyright: 1999 New Spring Publishing / ASCAP
        
I tried to tab out the whole song, but there's 4-5 guitars at some
parts! I did my best to keep it down to 2 or 3 parts at once.

      EADGBe
Dadd4:x00032

Intro: D   Dadd4   D   G (x4)
       Bass:Riff A

Verse 1:w/ Riff A
D      Dadd4  D      G
D      Dadd4  D      G
D      Dadd4  D      G
D      Dadd4  D      G

(add clean electric 1 here, strumming the same chords, but only
the top three strings - G,B,E)
D   Dadd4   D   G (x2)


Chorus: electric 1(and/or electric 2) plays power chords
G(5)   D(5)
G(5)   A(5)
G(5)   Bm(B5)
A(5)   D(5)

D   Dadd4   D   G (x2)
electric 1: Riff B1
electric 2: Riff B2

Verse 2: (electric 1 keeps playing Riff B1
          electric 2 plays power chords
          acoustic  plays same chords as verse 1)

D5     G5     D5     G5
D5     G5     D5     G5

(chorus)

D   Dadd4   D   G (x4)
electric 2:Riff C2
bass:Riff A

D   Dadd4   D   G (x4)
electric 1:Riff D1
electric 2:Riff D2
bass:Riff A

(chorus x2)
A(5)   D(5)
A(5)

D   Dadd4   D   G (x4)
electric 2:Riff E2
bass:Riff A

Bridge/solo:
Acoustic/electric 3:alternate D(5) and G(5) throughout
electric 1:Riff D1
electric 2:Riff F2

(electric 1:Riff G1)

Bass:Riff A (this comes in somewhere around here, but it's hard to tell)
electric 1:solo

After solo:(at 5:42)
electric 2:Riff H2
electric 1:Riff H1 (5:51)

Acoustic: D (at 6:37)
electric 1:D5 (palm muted)(x34)

electric 2:Riff J2(6:49)
D5
D5
D5

acoustic/electric 1:alternate D(5) & G(5)
electric 2:alternate Riff B2 & F2
(There's another couple guitars in here, but it's to hard to tell what
they're playing to tab it out)

outro

ending:
Acoustic: alternate D & G
electric 1: Riff K1
electric 2: feedback (see Riff H2)

Riff A: They play this on bass, but it also sounds cool on guitar,
         so included it here anyway.  Play it up an octave on bass.
e--------------------------|
B--------------------------|  For Bass:
G--------------------------|-----11--------12--------14-11-------------
D---4------5-------7-4-----|--12--------12--------12-------14-12-------
A-5------5-------5-----7-5-|-------------------------------------------
E--------------------------|-------------------------------------------
Riff B1:                     2nd time only:
e--10--10--10\----7--7h8-7\-|---10--10--10\----3-3h5-3\----
B--10--10--10\----8--8---8\-|---10--10--10\----3-3---3\----
G---------------------------|------------------------------
D---------------------------|------------------------------
A---------------------------|------------------------------
E---------------------------|------------------------------
Riff B2:                       Key:
e---------------------------    \:slide down   /:slide up
B---------------------------    h:hamme on     p:pull off
G--11----------\4-----------    b:bend         r:return
D---------------------------    v:vibrato
A---------------------------
E---------------------------
Riff C2:
e----------------------------------------------------------------------
B----------------------------------------------------------------------
G-11--------\4---------/11----/12----\11--------\4--------/7-----------
D----------------------------------------------------------------------
A----------------------------------------------------------------------
E----------------------------------------------------------------------
Riff D1:                                        Riff D2:
e---------------------------------------------|------------------------
B---------------------------------------------|------------------------
G-2-----2----2---2-2--4-----4----4b5r4--2p0-2-|-11---------/12---------
D----0-----0---0---------0-----0--------------|------------------------
A---------------------------------------------|------------------------
E---------------------------------------------|------------------------
Riff E2:
e-----------------------------------------
B-----------------------------------------
G--11----------------/12------/14---------
D-----------------------------------------
A-----------------------------------------
E-----------------------------------------
Riff F2:
e-----------------------------------------
B-----------------------------------------
G--11-------/12----\11----\4--------------
D-----------------------------------------
A-----------------------------------------
E-----------------------------------------
Riff G1:this part comes in at 4:39
e-17----17----17----17-------------------------------------------------
B----15----15----15----15----------------------------------------------
G-------------------------16----16----16b17r16--14p12--14----14----14--
D----------------------------12----12---------------------12----12-----
A----------------------------------------------------------------------
E----------------------------------------------------------------------
(Riff G1 continued)
e----------------------------------------------------------------------
B----------------------------------------------------------------------
G----14----16----16----16b17r16--14p12--14----14----14----14----12-----
D-12----12----12----12---------------------12----12----12----12----12--
A----------------------------------------------------------------------
E----------------------------------------------------------------------
(Riff G1 continued)
e----------------------------------------------------------------------
B----------------------------------------------------------------------
G-12----12-14-12-11------11----11-12-11-9------9----9----9-------------
D----12---------------12----12--------------12---12---12---12----------
A----------------------------------------------------------------------
E----------------------------------------------------------------------
Riff H1: starts at 5:51 (there's more before this, but it's inaudible)
e--3-2---2-3----3-2--2---0-2-3----3--5----
B--3-3---3-3----3-3--3---3-3-3----3--3----
G-----------------------------------------
D-----------------------------------------
A-----------------------------------------
E-----------------------------------------
Riff H2 (see below on solo for where to come in)
e----------------------------------------------------------------------
B----------------------------------------------------------------------
G--11-------/12-------\11--------\9--------\7-(hold out, get feedback)-
D----------------------------------------------------------------------
A----------------------------------------------------------------------
E----------------------------------------------------------------------
Riff J2: starts at 6:49
e-----------------------------------------------------------------------
B-5/7--7/8--8-/10--10--10-8-7-8--8--8-7---7--7--7-----------------------
G---------------------------------------9---------9-7-9--9--9-/11-/12-11
D-----------------------------------------------------------------------
A-----------------------------------------------------------------------
E-----------------------------------------------------------------------
(Riff J2 continued)
e----------------------------------------------------------------------
B-10--10--10-8-7-8--8--8-7---7--7--7--------7--7/8--8/10---10/12-------
G--------------------------9---------9-7-9-----------------------------
D----------------------------------------------------------------------
A----------------------------------------------------------------------
E----------------------------------------------------------------------
Riff K1: (palm mute)
e-10----10----10----10----10----10----12----10----12-------------------
B----10----10----10----10----10----10----10----10----10-etc.-----------
G----------------------------------------------------------------------
D----------------------------------------------------------------------
A----------------------------------------------------------------------
E----------------------------------------------------------------------
Solo:comes in at 5:00  (this basically uses the D       nt 7th scale)
e-10---10-10---10-8-h10p8--8---8-8-h10---------------------------------
B-10---10-10---10---------------------12---13-13---12-10h12p10--10-10--
G----------------------------------------------------------------------
D----------------------------------------------------------------------
A----------------------------------------------------------------------
E----------------------------------------------------------------------
(solo continued)
e--------7-8-8-8/10--10--10--12-10-8-8/10--10--10v----------------------
B-8h9h10------------------------------------------12--10--11-12h15\10h12
G-----------------------------------------------------------------------
D-----------------------------------------------------------------------
A-----------------------------------------------------------------------
E-----------------------------------------------------------------------
(solo continued)
e----------------------------------------------------------------------
B-13-12-10v--10-10\----------------------------------------------------
G--------------------7---7-7---5-5/7---7----5--4h5-4--2-4-2--0-2-0--/7-
D--------------------0---0-0---0-0-----0----0--0---0--0-0-0--0-0-0---0-
A----------------------------------------------------------------------
E----------------------------------------------------------------------
(solo continued)
e----------------------------------------------------------------------
B----------------------------------------------------------------------
G-7-7---7-7---5-5/7---7-7---7-7---/11-11/12---12-12---14-12-11-7---7-7-
D-0-0---0-0---0-0-----0-0---0-0----0--0-------0--0----0--0--0--0---0-0-
A----------------------------------------------------------------------
E----------------------------------------------------------------------
(solo continued)                  *Electric 2 begins Riff H2 here
e--------------------------------------------------
B--------------------------------------------------
G-7-7---/11-11/12---12-12---14-12-11----12-11\4----
D-0-0----0--0-------0--0----0--0--0----------------
A--------------------------------------------------
E--------------------------------------------------



Comments about this tab

To add a comment for this tab, please visit the version of this guitar tab on it's home site, Christian Guitar Resources.



© 2005 MickMel - All Right Reserved - Privacy Statement