:: Home > Tabs > A > Anguish Unsaid > What Did You Spend It On?

Anguish Unsaid - What Did You Spend It On?


This tab has not yet been rated for accuracy.To rate this tab, please visit the version of this guitar tab on it's home site, Christian Guitar Resources.

Click here for a plain text version of this song (for better printing)




#----------------------------------PLEASE NOTE---------------------------------#
#This file is the author's own work and represents their interpretation of the #
#song. You may only use this file for private study, scholarship, or research. #
#------------------------------------------------------------------------------#


WHAT DID YOU SPEND IT ON? -Anguish Unsaid

By: Andy

THis isnt the right rythm. Listen to the "Chronicles of The Restoration of
The Church" cd for the rythm.
INTRO and Part I
G|---------------------------------------------------------------------------|
D|---------------------------------------------------------------------------|
A|-5--3-------5--3-6----5--3------5-3-6--------------------------------------|
E|-------1--------------------1----------------------------------------------|
Part II
G|---------------------------------------------------------------------------|
D|---------------------------------------------------------------------------|
A|----6----------------------------------------------------------------------|
E|-545-----------------------------------------------------------------------|
Little Ditty Between Part II and III
G|---------------------------------------------------------------------------|
D|---------------------------------------------------------------------------|
A|-----4------6---------6-6--------------------------------------------------|
E|--323----545-------545-----------------------------------------------------|
Part III
G|---------------------------------------------------------------------------|
D|---------------------------------------------------------------------------|
A|--6565656565653565---------------------------------------------------------|
E|---------------------------------------------------------------------------|

then play that little riff in between part II and III

and end on C#

These guys are a truly talented hardcore band...they are amazing.
Keep Rocking for Christ.



Comments about this tab

To add a comment for this tab, please visit the version of this guitar tab on it's home site, Christian Guitar Resources.



© 2005 MickMel - All Right Reserved - Privacy Statement