:: Home > Tabs > G > Ghoti Hook > Mach 3

Ghoti Hook - Mach 3


This tab has not yet been rated for accuracy.To rate this tab, please visit the version of this guitar tab on it's home site, Christian Guitar Resources.

Click here for a plain text version of this song (for better printing)




#----------------------------------PLEASE NOTE---------------------------------#
#This file is the author's own work and represents their interpretation of the #
#song. You may only use this file for private study, scholarship, or research. #
#------------------------------------------------------------------------------#


Mach 3
By Ghoti Hook
Tabbed by Nathan Wernette

Okay, I’m pretty sure this is 99.9% correct.  I stayed up
till 12:00 last night to tab the song out.  Its awes

p.m...Palm Mute
b     Bend
<     Wah Out
Wah In
Vib it
H     Natural Harmonics

Guitar 1
riff A1 (intro) Play 5 times
E|--------------------------------------|
B|--------------------------------------|
G|--4-4-x—x---4-4--x—x---4-4---7--7---|
D|--4-4-x—x---4-4--x—x---4-4---7--7---|
A|--2-2-2h-2h--2-2--2h-2h--2-2-0-5--5-0-|
e|--------------------------------------|

Guitar 2 Play riff A1 after Guitar 1 has played it twice.
 
Riff B
Guitars 1&2
E|------------------------------------------|
B|------------------------------------------|
G|--4-4--------4-4--x—x---4-4---6-7-----7--|
D|--4-4-x—x---4-4--x—x---4-4---6-7-5---7--|
A|--2-2-2h-2h--2-2--2h-2h--2-2-0-4-5-5-0-5--|
E|-----------------------------------3------|

Then Play Riff a again (Both Guitars) and then Riff B again.

Guitar 1                   
Riff C1 (verse)            ____________ _______________
Play twice                 |1st        |2nd           |
E|-------------------------|-----------|--------------|
B|-------------------------|-----------|--------------|
G|--4-4-4-4-4-4-4-4-4-4-4--|-7--7----‘-|--------------|
D|--4-4-4-4-4-4-4-4-4-4-4--|-7--7------|--5-5-7-7-----|
A|--2-2-2-2-2-2-2-2-2-2-2--|-5--5-0--‘-|--5-5-7-7-----|
E|-------------------------|-----------|--3-3-5-5-----|

Guitar 2
Riff C2 (verse)  ___________________________
Play Twice      |1st        |2nd           |
E|--------------|-----------|--------------|
B|--------------|-----------|--------------|
G|--4---4---4---|--7--7---‘-|--------------|
D|--4---4---4---|--7--7-----|--5-5-7-7-----|
A|--2---2---2---|--5--5-0-‘-|--5-5-7-7-----|
E|--------------|-----------|--3-3-5-5-----|

Both Guitars
Riff D.1 (chorus)
Play 3 times
E|-----------------------------------|
B|-----------------------------------|
G|------------------4-4-4-4-4-4-4-4--|
D|--5-5-5-5-7-7-7-7-4-4-4-4-4-4-4-4--|
A|--5-5-5-5-7-7-7-7-2-2-2-2-2-2-2-2--|
E|--3-3-3-3-5-5-5-5------------------|

Guitar 1
Riff D.2
E|------------------|------x~~\-------------|
B|------------------|----------~~\----------|
G|------------------|-----------~~\---------|
D|--5-5-5-5-7-7-7-7-|2-----------~~~~\------|
A|--5-5-5-5-7-7-7-7-|2------------~~~~~~\---|
E|--3-3-3-3-5-5-5-5-|0-------------~~~~~~~\-|

Guitar 2 
Riff D.2
E|------------------|----------x~~\----------|
B|------------------|--------------~~\-------|
G|------------------|--------------~~~\------|
D|--5-5-5-5-7-7-7-7-|2-----------------~\----|
A|--5-5-5-5-7-7-7-7-|2-------------------~\--|
E|--3-3-3-3-5-5-5-5-|0--------------------~\-|

Play Riff A Once
Play Riff B Once
Play Riff A Once
Play Riff B Once
Play Riff C As directed
Play Riff D.1 3 times
Then Play Riff D.2 until lines parting the open e string and go to Riff E.1


Riff E.1 (Bridge)        Riff E.2 (Brigde)
Both Guitars
G|---------------------|-------------------------------
D|--2-----2-2-2-2-2-2--|-4-----4-4-4-4-4-4-4-4-4-4-4-4-
A|--2-----2-2-2-2-2-2--|-4-----4-4-4-4-4-4-4-4-4-4-4-4-
E|--0-----0-0-0-0-0-0--|-2-----2-2-2-2-2-2-2-2-2-2-2-2-

D|4-4
A|4-4
E|2-2




Riff F          ____________________
Guitar 1        |1st        |       |
G|------------4-|-----------|--7----|
D|-5-6-2-4--2-4-|-----------|--7-7--|
A|-5-6-2-4--2-2-|-----------|--5-7--|
E|-5-4-0-2--0---|-----------|----5--|
Riff F         __________________
Guitar 2       |1st      |      |
G|-------------|--9-9-7--|--7---|
D|-------------|--9-9-7--|--7-7-|
A|-------------|--7-7-5--|--5-7-|
E|-------------|---------|----5-|

Play Riff E.2 Again Guitar 1 with Wah and Guitar 2 with Phaser

Then Riff F and take the second ending.

Guitar 2
8 times
G|--9-9-9-9-9-9-9-9--------|
D|--9-9-9-9-9-9-9-9--------|
A|--7-7-7-7-7-7-7-7--------|
E|-------------------------|

Do a funky Style playing
3 times
G|--9-9-9-9-9-9-9-9-9-9-9-9-9-9-9-9--------------------
D|--9-9-9-9-9-9-9-9-9-9-9-9-9-9-9-9--9-9-9-9-9-9-9-9-9-
A|--7-7-7-7-7-7-7-7-7-7-7-7-7-7-7-7--9-9-9-9-9-9-9-9-9-
E|-----------------------------------7-7-7-7-7-7-7-7-7-

D|9-9-9-9-9-9-9----|
A|9-9-9-9-9-9-9----|
E|7-7-7-7-7-7-7----|
Guitar 1
4 times
E|--------------------------------------------------|
B|--12<-12-12<-12-12<-12-12<-12-9<-9-9<-9-9<-9-9<-9-|
G|--------------------------------------------------|

E|----------------------------------------------------|
B|----------------------------------------------------|
G|-11<-11-11<-11-11<-11-11<-11--9<-9-9<-9-9<-9-11<-11-|

Guitar 1
With Wah as a sweeper
E|------------------------------------------------------------------|
B|--7-7-7-7-7-7-7-7-7-7-7-7-7-7-7-7-9-9-9-9-9-9-9-9-9-9-9-9-9-9-9-9-|
G|------------------------------------------------------------------|

Guitar 2

D|--5-5-5-5-5-5-5-5-5-5-5-5-5-5-5-5-7-7-7-7-7-7-7-7-7-
A|--5-5-5-5-5-5-5-5-5-5-5-5-5-5-5-5-7-7-7-7-7-7-7-7-7-
E|--3-3-3-3-3-3-3-3-3-3-3-3-3-3-3-3-5-5-5-5-5-5-5-5-5-

D|7-7-7-7-7-7-7-|
A|7-7-7-7-7-7-7-|
E|5-5-5-5-5-5-5-|

Guitar 2 play Riff A 4 times 

Guitar 1 Solo
With slight deley of eighth note pattern
    . . .  . . .  . . .   .     .        . .
E|-----------------------------------------------------
B|-----------------------------------------------------
G|--9b(11)-9b(11)-9b(11)-9b(11)-9b(11)-r-9-7-----------
D|---------------------------------------------9-9-7-7

G|7-----7-11-10-9-7---|
D|--7-9-------------9-|

E|---------------------------------------------------|
B|---------------------------------------------------|
G|-10-10-7-7-9-9-7-7-10-10-7-7-9-9-10---7-10-10b(12)-|
D|---------------------------------------------------|

E|--12b(13)-12b(13)-12b(13)----------------------------
B|---------------------------12-10----10-----10--11b12b
G|---------------------------------11-----11-----------
D|-----------------------------------------------------

Outro

Both Guitars
3 times
Riff G
G|---------------------------------------------------|
D|------------------4-4-4-4-4-4-4-4------------------|
A|--5-5-5-5-7-7-7-7-2-2-2-2-2-2-2-2------------------|
E|--3-3-3-3-5-5-5-5----------------------------------|
Riff G.2
G|-----------------|
D|-5-5-5-5-7-7-7-7-|
A|-5-5-5-5-7-7-7-7-|
E|-3-3-3-3-5-5-5-5-|
Back to Riff G 3 more times
Both Guitars
Riff H
G|-------------------------------------------------4--|
D|-5-5-5-5-7-7-7-7-5-5-5-5-7-7-7-7-5-5-5-5-7--7--7-4--|
A|-5-5-5-5-7-7-7-7-5-5-5-5-7-7-7-7-5-5-5-5-7--7--7-2--|
E|-3-3-3-3-5-5-5-5-3-3-3-3-5-5-5-5-3-3-3-3-5--5--5----|


wowy thats a lot of typing hope you enjoyed thsi kick butt
song its a lot of fun
its kinda hard to read E-mail me at Fuelline082@hotmail.com
for this unrevised before i put it in here and i can take
requests for some more songs to tab.



Comments about this tab

To add a comment for this tab, please visit the version of this guitar tab on it's home site, Christian Guitar Resources.



© 2005 MickMel - All Right Reserved - Privacy Statement