:: Home > Tabs > U > Ultimatum > Never

Ultimatum - Never


This tab has been rated a 5.00 out of 5 for accuracy.
(1 vote)
To rate this tab, please visit the version of this guitar tab on it's home site, Christian Guitar Resources.

Click here for a plain text version of this song (for better printing)




#----------------------------------PLEASE NOTE---------------------------------#
#This file is the author's own work and represents their interpretation of the #
#song. You may only use this file for private study, scholarship, or research. #
#------------------------------------------------------------------------------#


  Never
  Ultimatum
  Album:Puppet of Destruction
  c1998 Rowe Productions Pty.Ltd.

     p.m      p.m     p.m     p.m     p.m    p.m
  e----------------------------------------------------
  B---------------------------------------------------- Intro Gtr.1
  G---------------------------------------------6h8----   2x's
  D-------6-7----9-7-6---6h7------6-7---9-7-6----------
  A---4-4-----4--------4------4-4-----4-------4--------(riff1)
  E----------------------------------------------------


Gtr.2 C#5--hold chord through out---------------------- 
     p.m     p.m      p.m   p.m     p.m     p.m         Gtr.1&2
  e----------------------------------------------------  2x's
  B----------------------------------------------------
  G--------------------------------------------6h8-----
  D-------6-7---9-7-6---6h7------6-7---9-7-6-----------
  A---4-4-----4-------4------4-4-----4-------4---------(riff1)
  E----------------------------------------------------

Gtr.2 G#5--hold chord through out----------------------
     p.m     p.m     p.m    p.m    p.m    p.m           Gtr.1&2
  e----------------------------------------------------  2x's
  B----------------------------------------------------
  G----------------------------------------------------
  D------------------------------------------6h8-------
  A-------6-7---9-7-6---6h7----6-7---9-7-6-------------(riff2)
  E---4-4-----4-------4-----4-4----4-------4-----------


       p.m---          p.m---               p.m---
  e----------------------------------------------------
  B----------------------------------------------------
  G----------------------------------------------------
  D-8-----------8-8--9-----------9--11-9--8------------
  A-6--6-6-6-6--6-6--7--7-7-7-7--7--9--7--6--6-6-6-6---
  E----------------------------------------------------


                 p.m-------------
  e-------------------------------
  B-------------------------------Gtr.1&2
  G------------------------------- 2x's
  D--8-8---9-9--------------------
  A--6-6---7-7---4-4-4-4-4-4-4-4--(riff 3)
  E-------------------------------




  
     (riff 4)     
       sl.                               sl.
  D-6/--------8-------x---8-8-x---8----6/----8------x--8-8--x--6-
  A-4/--------6-------x---6-6-x---6----4/----6------x--6-6--x--4-
  E--------------------------------------------------------------


      sl.                          sl. 
  D-6/------8-x-8---8--x-8-------6/------8------x--8-8----6----
  A-4/------6-x-6---6--x-6-------4/------6------x--6-6----4---- 
  E------------------------------------------------------------ 

      sl.                           sl.
  D-4/-----6---x----6---6-x--6----4/----6---x-6--6-x-4----------
  A-2/-----4---x----4---4-x--4----2/----4---x-4--4-x-2----------  
  E-------------------------------------------------------------

       sl.                       sl. 
  D--4/-----6--x6--6-x--6------4/-----6---x-6------6-x-6-------
  A--2/-----4--x4--4-x--4------2/-----4---x-4------4-x-4-------
  E------------------------------------------------------------

   Chorus: (riff 5)            
                                                   (riff 6)
    Let ring----------------                      | play riff 2x's
  G----4------4-----------------------------------|---------------
  D----4--------4----3-------------4-----4--------|---------------
  A----2-----2----2--1-------------2-----2--------|----1-2----4-2-
  E-----------------------------------------------|0000---0000----

    Let ring------------------------------------------------------
  G-4-----------4---------------------3--------------4-----4------
  D-4-------------4-------------------1--------------2-----2------
  A-2----------2----2---------------------------------------------
  E----------------------------------------- ---------------------
                  | Play this riff 2x's
   |play riff 4x's|    p.m             p.m
  D---------------|--8----------8-8-9-----------9--11--9---8----
  A-----1-2----4-2|--6--6-6-6-6-6-6-7--7-7-7-7--7--9---7---6----
  E-0000---0000---|---------------------------------------------
                         |1st.            |2nd.
                         |                |
    p.m                    p.m
  D----------8-8---9-9--------------------|---6--6---------------               
  A-6-6-6-6--6-6---7-7---4-4-4-4-4-4-4-4--|---4--4---------------
  E---------------------------------------|----------------------









   Verse 2:(w/riff 4)

   Chorus: |riff 5|                            
             (riff6 2x's)
           |riff 5|
             (riff 6 2x's)
           |riff 5|
             (riff 6 4x's) 
      
      
      solo section:(solo to come in the future but here is the rhythm)

    D-3-3-------3-3-------3-3-------3-3------
    A-1-1-------1-1-------1-1-------1-1------(riff 7)
    E----------------------------------------

    Then riff 4 2x's=There 2 guitarists on the CD
    who trade solo's over riff 4 it's pretty cool.
    
   Verse 3:(w/riff 4)
   
   Chorus: |riff 5|
              (riff 6 2x's)
           |riff 5|
              (riff 6 2x's)
           |riff 5|
              (riff 6 4x's)





   Gtr. 2
       |hold chord-------| |hold chord--------|
   D|--8-----------------|-9------------------|
   A|--6-----------------|-7------------------|
    |                    |                    |
    |Gtr. 1              |                    | 
   D|--------------------|----6-7--9-7-6--6h7-|
   A|-----6-7--9-7-6--6h7|-4-4---4------4-----|
   E|--4-4---4------4----|--------------------|



    Gtr.2                                         |hit chord 2x
       |hold chord------------| |hold chord-------|slide down.
   D|--11---------------------|-13----------------|-14\-------|
   A|--9----------------------|-11----------------|-12\-------|
    |                         |                   |           |
    |Gtr.1                    |                   |           |
   D|-------------------------|-------------------|           |  
   A|-----9-10--12-10-9--9h10-|----6-7--9-7-6--6h7|-8\--------|
   E|--7-7----7--------7------|-4-4---4------4----|-6\--------|

 
    TAB By Ed Morones q's & com's to ejmorones@iol25.com
    This was my first so let me know if it was any good or
    whatever.Enjoy,God bless.
    P.S. I am currently working on the solo so please be patient.



Comments about this tab

To add a comment for this tab, please visit the version of this guitar tab on it's home site, Christian Guitar Resources.



© 2005 MickMel - All Right Reserved - Privacy Statement