:: Home > Tabs > P > Pedro the Lion > Slow and Steady Wins the Race

Pedro the Lion - Slow and Steady Wins the Race


This tab has not yet been rated for accuracy.To rate this tab, please visit the version of this guitar tab on it's home site, Christian Guitar Resources.

Click here for a plain text version of this song (for better printing)




#----------------------------------PLEASE NOTE---------------------------------#
#This file is the author's own work and represents their interpretation of the #
#song. You may only use this file for private study, scholarship, or research. #
#------------------------------------------------------------------------------#


Title: Slow and Steady Wins the Race
Artist: Pedro the Lion
Album: Winners never Quit
Transcriber: Jonathan Spies

Standard Tuning

The rhythm is not tabbed correctly, it is just to give an 
idea, you should listen to the song


    D                D           G           A
E  +2-2--------------2--2--2--2--3--3--3--3--0--0--0--0-----+
B  |3-3--------------3--3--3--3--0--0--0--0--2--2--2--2-----|
G  |2-2--------2-0---2--2--2--2--0--0--0--0--2--2--2--2-----|
D  |0-0--0-2-4-------0--0--0--0--0--0--0--0--2--2--2--2-----|
A  |-------------0---------------2--2--2--2--0--0--0--0-----|
E  +-----------------------------3--3--3--3-----------------+
	 All the way..           ..narrow..  wandered off..
repeat

    D             A#          A           A#          A 
E  +2-2-----------------------------------------------0-0-0-+
B  |3-3-----------------------------------------------2-2-2-|
G  |2-2--------0--------------------------------------2-2-2-|
D  |0-0--0-2-3----8-8-8 8 8-8-7-7-7-7-7-7-8-8-8-8-8-8-2-2-2-|
A  |--------------8-8-8-8-8-8-7-7-7-7-7-7-8-8-8-8-8-8-0-0-0-|
E  +--------------6-6-6 6-6-6-5-5-5-5-5-5-6-6-6-6-6-6-------+
 ..ravine when I..grandma's.. tea and ... brother..   know

    D             G   A#  D       G   A#  D D7    G   C
E  +2-2-----------------------------------------------------+
B  |3-3-----------------------------------------------------|
G  |2-2--------2----------7-7-7-7---------7-5-5-5-----------|
D  |0-0- 0 2 4----5-5-8-8-7-7-7-7-5-5-8-8-7-7-7-7-5-5-1010--|
A  |--------------5-5-8-8-5-5-5-5-5-5-8-8-5-5-5-5-5-5-1010--|
E  +--------------3-3-6-6---------3-3-6-6---------3-3-8-8---+
  ..ate

    F F/E D  A#  G   "SOLO"
E  +--------------------------------------------------------+
B  |--------------------------------------------------------|
G  |1010-7-7---------------0-2----0---------0 ----0-2-3-2---|
D  |1010-7-7-8-8-5---0 2-3-----0----3-2-0-3---2 3---------3-|
A  |8-7--5-5-8-8-5------------------------------------------|
E  +---------6-6-3------------------------------------------+


E  +--------------------------------------------------------+
B  |--------------------------------------------------------|
G  |-0-2---2---2-0---------0-2---0---------0-2-0-----0------|
D  |-----3---------2 3-2-3-----0---3-2-0-3-------3-2---3-2--|
A  |---------3----------------------------------------------|
E  +--------------------------------------------------------+

                 D   D/C#  D - repeat first 2 sections
E  +-----------------------2--------------------------------+
B  |-----------------------3--------------------------------|
G  |---0-------------2-----2--------------------------------|
D  |-0---3-2-0---0---------0--------------------------------|
A  |-------------0---4--------------------------------------|
E  +--------------------------------------------------------+

Ending on "too"
     A  B     D     Gm     D
E  +-0--------2-2----------2--------------------------------+
B  |-2--------3-3----------3--------------------------------|
G  |-2--4-4---2-2---3-3----2--------------------------------|
D  |-2--4-4---0-0---5-5----0--------------------------------|
A  |-0--2-2---------5-5-------------------------------------|
E  +----------------3-3-------------------------------------+
heaven	too..........

+--------------------------------------------------------+
|  Transcribed by Jonathan Spies                         |
+--------------------------------------------------------+

From: 



Comments about this tab

the_musicman - 2006-08-08
sounds great...A+
adiosc33755 - 2007-10-24
F F/E D A# G "SOLO"
E +--------------------------------------------------------+
B |--------------------------------------------------------|
G |1010-7-7---------------0-2----0---------0-----0-2-3-2---|
D |1010-7-7-8-8-5---0-2-3-----0----3-2-0-3---2-3---------3-|
A |8-7--5-5-8-8-5-----------0----1-------3---4-------5-3---|
E +---------6-6-3------------------------------------------+


E +--------------------------------------------------------+
B |--------------------------------------------------------|
G |-0-2---2---2-0---------0-2---0---------0-2-0-----0------|
D |-----3---------2 3-2-3-----0---3-2-0-3-------3-2---3-2--|
A |-1-------3---4---5---5---0---1-------3---4-------5-3----|
E +--------------------------------------------------------+

D D/C# D - repeat first 2 sections
E +-----------------------2--------------------------------+
B |-----------------------3--------------------------------|
G |---0-------------2-----2--------------------------------|
D |-0---3-2-0---0---------0--------------------------------|
A |-2-----------0---4--------------------------------------|
E +-----3---5---5------------------------------------------+

I added the bass notes to the solo, It just seems empty with out the bass line!
hope it helps you out.

To add a comment for this tab, please visit the version of this guitar tab on it's home site, Christian Guitar Resources.



© 2005 MickMel - All Right Reserved - Privacy Statement