:: Home > Tabs > S > Schultz, Mark > Now That You've Come Into My Life

Mark Schultz - Now That You've Come Into My Life


This tab has not yet been rated for accuracy.To rate this tab, please visit the version of this guitar tab on it's home site, Christian Guitar Resources.

Click here for a plain text version of this song (for better printing)




#----------------------------------PLEASE NOTE---------------------------------#
#This file is the author's own work and represents their interpretation of the #
#song. You may only use this file for private study, scholarship, or research. #
#------------------------------------------------------------------------------#


This song is pretty easy and simple it is the same chords the whole way
through. It is standard tuning EADGBE, You want to have an electric
with pretty heavy distortion. 
x=palm mute
o=no palm mute
*=don't play string

Intro:
  x x x x x x x x x  x x x x x x x  x x x x x x x x x  x x x x x x x
E-1-1-1-1-1-1-1-1-1--6-6-6-6-6-6-6----------------------------------
A-----------------------------------5-5-5-5-5-5-5-5-5--3-3-3-3-3-3-3
D-------------------------------------------------------------------
G-------------------------------------------------------------------
B-------------------------------------------------------------------
E-------------------------------------------------------------------

Chorus: Play power chords.
  
E-1-1-1-1-1-1-1-1-1--6-6-6-6-6-6-6--*-*-*-*-*-*-*-*-*--*-*-*-*-*-*-*
A-3-3-3-3-3-3-3-3-3--8-8-8-8-8-8-8--5-5-5-5-5-5-5-5-5--3-3-3-3-3-3-3
D-3-3-3-3-3-3-3-3-3--8-8-8-8-8-8-8--7-7-7-7-7-7-7-7-7--5-5-5-5-5-5-5
G-*-*-*-*-*-*-*-*-*--*-*-*-*-*-*-*--7-7-7-7-7-7-7-7-7--5-5-5-5-5-5-5
B-*-*-*-*-*-*-*-*-*--*-*-*-*-*-*-*--*-*-*-*-*-*-*-*-*--*-*-*-*-*-*-*
E-*-*-*-*-*-*-*-*-*--*-*-*-*-*-*-*--*-*-*-*-*-*-*-*-*--*-*-*-*-*-*-*

Then play the intro. Listen to the song and you will have a blast playing it, 
I know I do.




Comments about this tab

To add a comment for this tab, please visit the version of this guitar tab on it's home site, Christian Guitar Resources.



© 2005 MickMel - All Right Reserved - Privacy Statement