:: Home > Tabs > D > Disciple > After The World

Disciple - After The World


This tab has been rated a 5.00 out of 5 for accuracy.
(3 votes)
To rate this tab, please visit the version of this guitar tab on it's home site, Christian Guitar Resources.

Click here for a plain text version of this song (for better printing)




#----------------------------------PLEASE NOTE---------------------------------#
#This file is the author's own work and represents their interpretation of the #
#song. You may only use this file for private study, scholarship, or research. #
#------------------------------------------------------------------------------#


the only other music for this song is in chords.... so im making a tab and its
slightly different..... im not sure if youd call it "corrections" as much as just
a different way of playing this song. the other chord tab was pretty good.

standard tuning (eadgbe)

Verse: figure out strumming all acoustic guitar for first chorus
   (Bm)  (A)   (d)
e---2-----0-----2------------------------------------------------------
b---3-----2-----3------------------------------------------------------
g---4-----2-----2-----repeat 8x-then-----------------------------------
d---4-----2-----0----------------------5---7---------------------------
a---2-----0----------------------------5x8-7x8---(



Comments about this tab

oilcountry99 - 2007-03-20
yah they deleted the rest of my tab.... so here it is.
oilcountry99 - 2007-03-20
Chorus: listen 2 the song to figure out when to change chords and
the strumming etc.

electric guitar 1

e-------------------------------------------------
b-------------------------------------------------
g----7------------------------then repeat---------
d----7----7----7/8/9~---7~------------------------
a-----5---7----7/8/9~---7~------------------------
e----------5----5/6/7~---5~------------------------

Chorus Acoustic or guitar2 accompaniment: figure out strumming

e----2~---0~---5\3-2~---0~------------------------
b----3~---2~---5\3-3~---2~------------------------
g----2~---2~---6\4-4~---2~---then repeat----------
d----0~---2~---7\5-4~---2~------------------------
a---------0~---0---2~---0~------------------------
e------------------2~-----------------------------

then back 2 verse

bridge:

g-----------------------------------------
d----9--9xx---5--5xx---7777---------------
a----9--9xx---5--5xx---7777----repeat-----
e----7--7xx---3--3xx---5555---------------

soft bridge:

e-----2~---0~---2~------------------------
b-----3~---2~---3~------------------------
g-----2~---2~---4~------------------------
d-----0~---2~---4~------------------------
a----------0~---2~------------------------
e-----------------------------------------

then do pre chorus and the soft bridge again and end on the soft bridge.
oilcountry99 - 2007-03-20
have fun with it..... i think im wrong about the timing/ strumming of the bridge..... open 4 corrections./
oilcountry99 - 2007-03-20
i c they also took out the bottom e string on the verse they did put on... so here that is.
Verse: figure out strumming all acoustic guitar for first chorus
(Bm) (A) (d)
e---2-----0-----2------------------------------------------------------
b---3-----2-----3------------------------------------------------------
g---4-----2-----2-----repeat 8x-then-----------------------------------
d---4-----2-----0----------------------5---7---------------------------
a---2-----0----------------------------5x8-7x8---(
e---2----------------------------------3---5---------------------------

NOW have fun
oilcountry99 - 2007-03-20
thats a:
d----5---7---
a----5x8-7x8-
e----3---5---

some how the font got smaller
porkythepig13 - 2007-05-03
one suggestion on the chorus w/ electric the last

D---7----- D---5---
A---7----- A---5---
E---5----- i think it should be E---3---

To add a comment for this tab, please visit the version of this guitar tab on it's home site, Christian Guitar Resources.



© 2005 MickMel - All Right Reserved - Privacy Statement