:: Home > Tabs > D > Disciple > Be the Quiet

Disciple - Be the Quiet


This tab has been rated a 4.60 out of 5 for accuracy.
(5 votes)
To rate this tab, please visit the version of this guitar tab on it's home site, Christian Guitar Resources.

Click here for a plain text version of this song (for better printing)




#----------------------------------PLEASE NOTE---------------------------------#
#This file is the author's own work and represents their interpretation of the #
#song. You may only use this file for private study, scholarship, or research. #
#------------------------------------------------------------------------------#


Disciple- Be the quiet

No one has posted a tab for this song yet and I think its great so here it is.

INTRO/CHORUS X 4

D----------------------------------------------------------------------------
A----7h8h10--8--7h8p7-----11--11--10-----------------------------------------
F----7-----------------7--7---7---7------------------------------------------
C----------------------------------------------------------------------------
G----------------------------------------------------------------------------
C--0-------------------------------------------------------------------------

Verses X 4

D----------------------------------------------------------------------------
A----------------------------------------------------------------------------
F---77777---55555--8--77777--------------------------------------------------
C---xxxxx---xxxxx--x--xxxxx--------------------------------------------------
G---55555---33333--6--55555--------------------------------------------------
C----------------------------------------------------------------------------

Prechorus X 3

D----------------------------------------------------------------------------
A----------------------------------------------------------------------------
F---10--9----------7--------7------------------------------------------------
C---10--9----------x--------x------------------------------------------------
G---8---7----------5--------5------------------------------------------------
C---8---7---0-0-0-----0-0-0--------------------------------------------------

Now play

D----------------------------------------------------------------------------
A----------------------------------------------------------------------------
F---10---12------------------------------------------------------------------
C---10---10------------------------------------------------------------------
G---8----10------------------------------------------------------------------
C---8----10------------------------------------------------------------------

Chorus X 4 Play intro riff

Play this after each chorus and during the solo

D----------------------------------------------------------------------------
A----------------------------------------------------------------------------
F----------------------------------------------------------------------------
C--0-4-3-0-1-3-0-4-3-0-1-3-0-4-3-0-1-3-0-------------------------------------
G--0-4-3-0-1-3-0-4-3-0-1-3-0-4-3-0-1-3-0-------------------------------------
C--0-4-3-0-1-3-0-4-3-0-1-3-0-4-3-0-1-3-0-------------------------------------

Solo- Im pretty sure this is right

D----------------------------------------------------------------------------
A---3-----------------------------------------------------------6-8p6---6----
F-----5-2-2h3p2---5-2---5-2-0-2-2h3p2---5-2---5-2-0-2-2h3p2--/7-------7------
C---------------3-----3---------------3-----3--------------------------------
G----------------------------------------------------------------------------
C----------------------------------------------------------------------------

D----------------------------------------------------------------------------
A--8b10r8p6---6-10---10-11-10----10------------------------------------------
F-----------7-----------------12----12-10-9-10-9----9------------------------
C------------------------------------------------12---12-10-12-10----10------
G-----------------------------------------------------------------13----13---
C----------------------------------------------------------------------------

D----------------------------------------------------------------------------
A----------------------------------------------------------------------------
F----------------------------------------------------------------------------
C--------10----10-12---------------------------------------------------------
G--12-13----13---------------------------------------------------------------
C----------------------------------------------------------------------------

Thats it.  You can figure out the arrangement by listening to it. Please
leave any comments or corrections. greatly appreciated. have fun
Patrick





Comments about this tab

c4gchip - 2007-01-27
I tried to tab this earlier in the year, my version sounded similiar but this one seems to be more accurate and dead on. Nice job man :) I've always started the solo at the middle C string at the 12th fret, but this solo sounds more accurate. Once again - Great job!
DiscipleRawks - 2007-09-11
Great job man. I think the solo might be a little off but hey i can't get any closer and it sounds great!

To add a comment for this tab, please visit the version of this guitar tab on it's home site, Christian Guitar Resources.



© 2005 MickMel - All Right Reserved - Privacy Statement