:: Home > Tabs > T > Third Day > This Song Was Meant For You

Third Day - This Song Was Meant For You


This tab has not yet been rated for accuracy.To rate this tab, please visit the version of this guitar tab on it's home site, Christian Guitar Resources.

Click here for a plain text version of this song (for better printing)




#----------------------------------PLEASE NOTE---------------------------------#
#This file is the author's own work and represents their interpretation of the #
#song. You may only use this file for private study, scholarship, or research. #
#------------------------------------------------------------------------------#


Third day
This Song was Meant for you
Conspiracy #5
1997 New Spring Publishing/ASCAP

Standard Tuning
Ebow effect also a 12-string 



 Intro w/Ebow
  C            Em              F      Am         G
 4/4
  Gtr I
  E  E E E E   E   E  E  E E    E   E  E  E  E   E   E  E   E
|------------|---------------|-----------------|---------------|
|------------|---------------|-----------------|-8s=10s12s=13--|
|-5s=7-9s7-5-|-9s=10-12s10-9-|-10s=12-14s12-10-|-x---x--x---x--|
|-x--x-x-x-x-|-x---x--x--x-x-|--x---x--x--x--x-|-5s==7s=9s=10--|
|-3s=5-7s5-3-|-7s==8-10s=8-7-|--8s=10-12s10--8-|---------------|
|------------|---------------|-----------------|---------------|


  Ab    Bb
  E   E  E  E   E
|-----------------|----|
|-9--11s13s15s=17-|----|
|-----------------|----|
|-6---8s10s12s=14-|----|
|-----------------|----|
|-----------------|----|


 Verse w/Ebow
  C         Em          F    Am    G  Em    C       Em      F   Am
    E       E    E       E    E    E   E     E      E   E    E  E
|---------|-----------|----------|--------|-------|-------|-------|
|---------|-----------|----------|--------|-------|-------|-------|
|---------|-----------|----------|--------|-/9----|-9s=12s|=10s=7-|
|---------|-9--/12s===|=10---/7--|-5--/7--|-------|-------|-------|
|-(14)----|-----------|----------|--------|-------|-------|-------|
|---------|-----------|----------|--------|-------|-------|-------|


  G      D         F
  E       E   E      E
|------|---------|---------|----|
|------|---------|---------|----|
|------|---------|---------|----|
|-5----|-4--/7--|-/10-----|----|
|------|---------|---------|----|
|------|---------|---------|----|


 Chorus
  C              C7            Fmaj7          Ab6
   E    E E E    E   E E E     E    E E E     E   E E E
|--0----0-0----|-0---0-0-----|-0----0-0-----|-1---1-1-1--|
|--1----1-1----|-1---1-1-----|-1----1-1-----|-1---1-1-1--|
|--0----0-0-0--|-3---3-3-3---|-2----2-2-2---|-1-------1--|
|--2--------2--|-2-------2---|-3--------3---|-3----------|
|--3-----------|-3-------3---|--------------|------------|
|--------------|-------------|--------------|------------|
|
|  E             E             E              E
|--------------|-------------|--------------|------------|
|--------------|-------------|--------------|------------|
|--------------|-------------|--------------|------------|
|-10-----------|-8-----------|-7------------|-6----------|
|--------------|-------------|--------------|------------|
|--------------|-------------|--------------|------------|


 Verse2 w/12-string                               x2             
  E E E E  E     E E E E E  E E E   E E E E E E E E   E E E E E E E E
|--------------|------------------|-----------------|-------3----------|
|----------1---|------------------|---------------1-|-----3---3-3s5s3--|
|-------0------|-----0------0-----|-------2-----2---|---0--------------|
|---0h2--------|-------0h2----2-0-|-----3-----2-----|------------------|
|-3------------|---2--------------|---3-----0-------|------------------|
|--------------|-0----------------|-1---------------|-3----------------|

end with/
  E E E E   E E   E          E
|-----------0-0-|-2--------|-1-------|----|
|-----------3-3-|-3--------|-1-------|----|
|-------0---2-2-|-2--------|-2-------|----|
|-----0-----0-0-|----------|-3-------|----|
|---2-----------|----------|-3-------|----|
|-3-------------|----------|-1-------|----|


 Bridge
  E E E  E  E E E  E   E E E  E  E E E  E   E E E E    E E E E
|-----3--3------3--3-|-----1--1------1--1-|----------|-----0-0--|
|-----3--3------3--3-|-----3--3------3--3-|-----5-5--|-----3-3--|
|--------------------|--------------------|-----5-5--|-----3-3--|
|--------------------|--------------------|-----5-5--|-----3-3--|
|--------------------|--------------------|-3-3------|-1-1------|
|-3-3-------3-3------|-3-3-------3-3------|----------|----------|


  E E E E E E E E
|-----------------|----|
|-2-2-2-2-2-2-2-2-|----|
|-3-3-3-3-3-3-3-3-|----|
|-4-4-4-4-4-4-4-4-|----|
|-----------------|----|
|-----------------|----|


 Chorus change
  D          D7          Gmaj7      Bb6
  E          E           E          E
|-2--------|-2---------|-2--------|-3----|
|-3--------|-1---------|-3--------|-3----|
|-2--------|-2---------|-0--------|-3----|
|-0--------|-0---------|-0--------|-5----|
|----------|-----------|-x--------|------|
|----------|-----------|-3--------|------|




Comments about this tab

To add a comment for this tab, please visit the version of this guitar tab on it's home site, Christian Guitar Resources.



© 2005 MickMel - All Right Reserved - Privacy Statement