:: Home > Tabs > D > Disciple > Game On

Disciple - Game On


This tab has been rated a 2.00 out of 5 for accuracy.
(4 votes)
To rate this tab, please visit the version of this guitar tab on it's home site, Christian Guitar Resources.

Click here for a plain text version of this song (for better printing)




#----------------------------------PLEASE NOTE---------------------------------#
#This file is the author's own work and represents their interpretation of the #
#song. You may only use this file for private study, scholarship, or research. #
#------------------------------------------------------------------------------#


Song: Game On
Artist: Disciple 
Album: Scars Remain (SRE Records)
Tuning: Drop C (C, G, C, F, A, D)
________________________________________________________________________________

Intro:
C|--------------------------
G|--------------------------
C|-0--0--0--0--0--0--6-5-3-0  (REPEAT 4X)

Pre-Chorus 1:
C|--------------------------
G|--------------------------
C|-0--0--0--0--0--0--6-5-3-0  (REPEAT 4X)

Chorus 1:
C|-0--5-0--6-6-5-0----------
G|-0--5-0--6-6-5-0----------
C|-0--5-0--6-6-5-0----------  (REPEAT 4X)

Verse 1:
C|-0--0-0-                   C|-----------------
G|-0--0-0-                   G|-----------------
C|-0--0-0- (NOT PALM MUTED)  C|-0-0-0-0-0-0-0-0- (PALM MUTED)

(GO THROUGH VERSE 1 4X)

Pre-Chorus 2:
C|--------------------------
G|--------------------------
C|-0--0--0--0--0--0--6-5-3-0  (REPEAT 4X)

Chorus 2:
C|-0--5-0--6-6-5-0----------
G|-0--5-0--6-6-5-0----------
C|-0--5-0--6-6-5-0----------  (REPEAT 4X)

Verse 2:
C|-0--0-0-                   C|-----------------
G|-0--0-0-                   G|-----------------
C|-0--0-0- (NOT PALM MUTED)  C|-0-0-0-0-0-0-0-0- (PALM MUTED)

(GO THROUGH VERSE 2 4X)

Pre-Chorus 3:
C|--------------------------
G|--------------------------
C|-0--0--0--0--0--0--6-5-3-0  (REPEAT 4X)

Chorus 3:
C|-0--5-0--6-6-5-0----------
G|-0--5-0--6-6-5-0----------
C|-0--5-0--6-6-5-0----------  (REPEAT 4X)

Bridge:
C|------------------------------------------------------------------------------
G|-3h5-5-5-5-5-5-5-5-3h5-5-5-5-5-5-5-5-3h5-5-5-5-5-5-5-5-3h5-5-5-5-5-5-5-6-6-3-3
G|------------------------------------------------------------------------------

(DO THAT PALM MUTED)

C|-0-0-0--------
G|-0-0-0--------
C|-0-0-0--------  (REPEAT 4X)

F|-------8----------8----------8----------
C|-0-0-0-x----0-0-0-x----0-0-0-x----0-0-0-
G|-0-0-0-6----0-0-0-6----0-0-0-6----0-0-0-
C|-0-0-0------0-0-0------0-0-0------0-0-0-

F|---------------8-
C|-6-5-0--6-5-0--x-
G|-6-5-0--6-5-0--6-
C|-6-5-0--6-5-0---- (REPEAT 7X)

Pre-Chorus 4: (Smaller)
C|--------------------------
G|--------------------------
C|-0--0--0--0--0--0--6-5-3-0  (REPEAT 2X)

Chorus 4:
C|-0--5-0--6-6-5-0----------
G|-0--5-0--6-6-5-0----------
C|-0--5-0--6-6-5-0----------  (REPEAT 4X)

Outro:
C|-0--5-0--6-6-5-0-
G|-0--5-0--6-6-5-0-
C|-0--5-0--6-6-5-0-  (REPEAT 8X)
________________________________________________________________________________

Order of Playing:
1. Intro
2. Pre-Chorus 1
3. Chorus 1
4. Verse 1
5. Pre-Chorus 2
6. Chorus 2
7. Verse 2
8. Pre-Chorus 3
9. Chorus 3
10. Bridge
11. Chorus 4
12. Outro



Comments about this tab

Live4him101 - 2007-01-09
This is like....just regular.....nothing special.....all you did was look at other tabs and base this one off of them and it doesnt have any of the in depth guitar riffs like in the chorus after the 2nd 0 5 0 6 0 3 0(all those power chords) i gave it a 2....sry man....take more time and listen to the riffs and take the time to figure them out!

To add a comment for this tab, please visit the version of this guitar tab on it's home site, Christian Guitar Resources.



© 2005 MickMel - All Right Reserved - Privacy Statement