:: Home > Tabs > T > Third Day > Born in Bethlehem

Third Day - Born in Bethlehem


This tab has been rated a 5.00 out of 5 for accuracy.
(2 votes)
To rate this tab, please visit the version of this guitar tab on it's home site, Christian Guitar Resources.

Click here for a plain text version of this song (for better printing)




#----------------------------------PLEASE NOTE---------------------------------#
#This file is the author's own work and represents their interpretation of the #
#song. You may only use this file for private study, scholarship, or research. #
#------------------------------------------------------------------------------#


Born in Bethlehem
Third Day
Christmas offerings


Gtr 1 w/ capo on 7th fret
E E  E  E     E E  E E    E E  E E E  E E
|-0-0---------|-----------|---0--0-0-0--0---|
|-3-3--3-(3)--|-0-0--0----|-0-3--3-5-3--0-3-|
|-0-2--2h=4---|-0-2--2s4--|-0-------------2-|
|-0-0--0------|-0-0--0----|-0-------------0-|
|-------------|-----------|-----------------|
|-------------|-----------|-----------------|

different endings for intro
  E  E E E  E E      E E E E  E E
|-----------------|---------------|
|-3--3------------|----3--------3-|
|-0--2h4p2--0-2---|--0-2h3p2--0-0-|
|-0--0------0-0---|--0--------0-0-|
|-----------------|---------------|
|-----------------|---------------|

verse
G,  ,C,D,G
C,  Em,Em,D,G

Chorus
C,G,Em,D
C,Em,Em,D,G

Bridge
Em, G,D
Bm, Am
C,D, G


Gtr.2
Capo on 2nd fret
Verse
C, F,G,C
F, Am,Am,G,C

Chorus
F,C,Am,G
F,  Am,Am,G,C

Bridge
Am, C, G
Em,Dm,Am
C,  



Comments about this tab

Thirddayrocks21 - 2007-01-01
I made a Mistake with the Tab , 1st guitar is in the open D and the other I believe is on the 5th fret, so that the key is the G chord

To add a comment for this tab, please visit the version of this guitar tab on it's home site, Christian Guitar Resources.



© 2005 MickMel - All Right Reserved - Privacy Statement