:: Home > Tabs > D > Disciple > Regime Change

Disciple - Regime Change


This tab has been rated a 1.33 out of 5 for accuracy.
(3 votes)
To rate this tab, please visit the version of this guitar tab on it's home site, Christian Guitar Resources.

Click here for a plain text version of this song (for better printing)




#----------------------------------PLEASE NOTE---------------------------------#
#This file is the author's own work and represents their interpretation of the #
#song. You may only use this file for private study, scholarship, or research. #
#------------------------------------------------------------------------------#


Regime Change
Disciple
Album Scars Remain
Tuning=C#

Intro
G#---00000000------------------------------------
C#---00000000----------------over & over again---

Before Verse
F#---------------10----------------------------------------
C#-------------------------------------over & over again---
G#---000000---8--------------------------------------------
C#---000000------------------------------------------------

Verse/My Finger…
G#---00-----------------------------
C#---00---------over & over again---

Chorus/This Is What I Want…
G#---0-3-5-8-7-6--------------
C#---0-3-5-8-7-6--------------

Bridge/& I’m So Sorry…
G#---7-6-5-8-9--------------------------------
C#---7-6-5-8-9--------------do this 2 times---

After Solo/So So Long…
G#---0-3-5-8-7-6------------------------------
C#---0-3-5-8-7-6----------over & over again---

Ending
G#---0000-----------------------------------
C#---0000---------------over & over again---



                         here ya go... 
                            
                           <<>>



Comments about this tab

chevelleman - 2007-01-18
Good try man but first of all its in drop C and the intro lead goes like this
D.--22-22-22-22-22-22-22-22
A.-------------------------
F.-------------------------
It does that however many times and then Brad just does a open C-0
G-0
C-0
He just kinda rides on that then he does a finger mute on the first fret of the C, G , And the c so yeah there u go
jered g. - 2007-02-26
yea sorry bout that...
i was play in the song the other day & noticed it was in drop C...
so i just moved my finger up one fret up then wat i wrote down on the page...
thynx for tellin me bout the tuning man...
keep rockin for JESUS!...
cause he is so awsome!...

To add a comment for this tab, please visit the version of this guitar tab on it's home site, Christian Guitar Resources.



© 2005 MickMel - All Right Reserved - Privacy Statement