:: Home > Tabs > D > Disciple > Dive

Disciple - Dive


This tab has been rated a 5.00 out of 5 for accuracy.
(1 vote)
To rate this tab, please visit the version of this guitar tab on it's home site, Christian Guitar Resources.

Click here for a plain text version of this song (for better printing)




#----------------------------------PLEASE NOTE---------------------------------#
#This file is the author's own work and represents their interpretation of the #
#song. You may only use this file for private study, scholarship, or research. #
#------------------------------------------------------------------------------#


Disciple – Dive
Drop C

Ok the intro is harmonized…....so I put the two parts as GUITAR 1 and GUITAR 2

INTRO - GUITAR 1
D|------------------------------------------------------------
A|---10-10-10---9-9-9-----------------------------------------
F|---------------------11-11-11---9-9-9------------9----------
C|------------------------------------------9h11--------------
G|------------------------------------------------------------
C|------------------------------------------------------------
    
INTRO - GUITAR 2
D|------------------------------------------------------------
A|------------------------------------------------------------
F|---11-11-11---9-9-9-----------------------------------------
C|---------------------11-11-11---9-9-9-------------9---------
G|------------------------------------------11h12-------------
C|------------------------------------------------------------
    
D|-------------------------------------------------------------------------------
A|-------------------------------------------------------------------------------
F|-------------------------------------------------------------------------------
C|--2h4--4---2h4--4--4-0-0-0-0-------------------7/------------------------------
G|--2h4--4---2h4--4--4-0-0-0-0---------------------------------------------------
C|--2h4--4---2h4--4--4-0-0-0-0---(4x)--------------------------------------------
                                             * On fourth time, slide down from 7 picking all 
                                               the way down to the open note ( 0 )  *

                                              
VERSE
D|-----------------------------------------------------------------------------
A|-----9-9-9---9-9-9---9-9-9---9-9-9-----10-10-10----10-10-10---10-10-10-------
F|-----7-7-7---7-7-7---7-7-7---7-7-7------7--7--7-----7--7--7----7--7--7-------
C|-----------------------------------------------------------------------------
G|-----------------------------------------------------------------------------
C|----------------------------------------------------------------------------- 
    
D|-------------------------------------------------------------------------------------------------------- ---      
A|------------------------------------------------------------------------------------------------------------  
F|-------------------------------------------------------------------------------------------------------------
C|---2h4--4---2h4--4--4-0-0-0-0-----2h4--4---2h4--4--4-0-0-0-0--------------------------9/-------
G|---2h4--4---2h4--4--4-0-0-0-0-----2h4--4---2h4--4--4-0-0-0-0--------------------------9/-------
C|---2h4--4---2h4--4--4-0-0-0-0-----2h4--4---2h4--4--4-0-0-0-0-------------------------9/-------
                                                                                                                 (2x)  going to chorus on second time,
                                                                                                                          slide down from 9
CHORUS -  GUITAR 1
D|------------------------------------------------------------------------------
A|------------------------------------------------------------------------------
F|----6-6-6-----------------------------------6-6-6-----------------------------
C|----6-6-6----7-7-7-----2-2-2---2-2-2--------6-6-6----7-7-7----4---0-0---------
G|----4-4-4----7-7-7-----2-2-2---2-2-2--------4-4-4----7-7-7----4---0-0---------
C|-------------7-7-7-----2-2-2---2-2-1-----------------7-7-7--- 4---0-0---------

D|------------------------------------------------------------------------------
A|------------------------------------------------------------------------------
F|------------------------------------------------------------------------------
C|---2h4--4---2h4--4--4-0-0-0-0--------------0-0-0-0--0--4--2-------------------
G|---2h4--4---2h4--4--4-0-0-0-0--------------0-0-0-0--0--4--2-------------------
C|---2h4--4---2h4--4--4-0-0-0-0—(4x)---------0-0-0-0--0--4--2—(2x)--------------
 

CHORUS – GUITAR 2
D|----------7--------------7---------5--4-------5--4------------------7------------------7---------5--4----5--------
A|---4--5-----5-----4--5-----5-------------5----------5--------4--5------5-------4--5------5------------------------
F|------------------------------------------------------------------------------------------------------------------
C|------------------------------------------------------------------------------------------------------------------
G|------------------------------------------------------------------------------------------------------------------
C|------------------------------------------------------------------------------------------------------------------
   
VERSE

CHORUS

INTRO 
(just the harmony part) *Intro Guitar 2 doesn’t come in till after 4 measures of just Intro guitar 1*
(played over these chords)

D|-------------------------------
A|-------------------------------
F|-------------------------------
C|---4----0--2-------------------
G|---4----0--2-------------------
C|---4----0--2---(2x)------------ 
    

ENDING – repeat last line of chorus three times and end on   C|---0---
                					     G|---0---
                                                             C|---0---

SO THERE YA GO,  ILL LET YOU FIGURE OUT LIKE ARRANGEMENT AND REPEATS AND STUFF,
BUT ITS ALL THERE,  HOPE IT HELPS YA ......LATER
- ROBBY



Comments about this tab

To add a comment for this tab, please visit the version of this guitar tab on it's home site, Christian Guitar Resources.



© 2005 MickMel - All Right Reserved - Privacy Statement