:: Home > Tabs > C > Camp, Jeremy > Breathe

Jeremy Camp - Breathe


This tab has been rated a 5.00 out of 5 for accuracy.
(1 vote)
To rate this tab, please visit the version of this guitar tab on it's home site, Christian Guitar Resources.

Click here for a plain text version of this song (for better printing)




#----------------------------------PLEASE NOTE---------------------------------#
#This file is the author's own work and represents their interpretation of the #
#song. You may only use this file for private study, scholarship, or research. #
#------------------------------------------------------------------------------#


Song: Breathe
Artist: Jeremy Camp
Album: Restored
Tabbed By: Josh
Tuning: Standard
(High to Low)
E
B
G
D
A
E

Extras:
()Parenthesis mean strum, but palm mute the chord.

Intro- Some echoing going on in background then guitar strums this.
E----------
B----------
G----------
D----8~~3~~
A----8~~3~~
E----6~~1~~

Verse-
E------------------------------                  --------
B------------------------------                  --------
G------------------------------                  --------
D----55(5)(5)(5)(5)(5)(5)(5)(5)                  --8~~3~~
A----55(5)(5)(5)(5)(5)(5)(5)(5) Three Times Then --8~~3~~          
E----33(3)(3)(3)(3)(3)(3)(3)(3)                  --6~~1~~

Pre-Chorus-
E---------------
B---------------
G----8~~~~------
D----8~~~~8~~7~~ Two Times
A----6~~~~8~~8~~
E---------6~~5~~

Chorus-
E--------------------
B--------------------
G--------8~~~--------
D----5~~~8~~~8~~~7~~~
A----5~~~6~~~8~~~8~~~
E----3~~~----6~~~5~~~

Bridge-
E---------------------------------------------------
B---------------------------------------------------
G----------14-------14----14-------10-----10---10---
D-------12----12-----------------8----8-------------
A----10----------10----10------6--------6----6------
E---------------------------------------------------

E---------------------------------------------------
B---------------------------------------------------
G---------------------------------------------------
D--------10-----10---10-------10-----10---10-------- Three Times
A------8----8---------------8----8------------------
E----6--------6----6------5--------5----5-----------

Pre-Chorus

Chorus-
E----------------------------
B----------------------------
G---------7~8~~~~~~----------
D----5~~~~7~8~~~~~~8~~~~7~~~~
A----5~~~~5~6~~~~~~8~~~~8~~~~
E----3~~~~---------6~~~~5~~~~

Outro-
E------------------------
B------------------------
G----12~~8~~10~~~~8~~~~~~
D----12~~8~~10~~~~8~~~~~~
A----10~~6~~8 ~~~~6~~~~~~
E------------------------

Thats It guys.  Have Fun and God Bless. (Ablaze2822)



Comments about this tab

Gtr4daKING - 2007-01-05
I think the last chord in the chorus is 5-8-8, but then again i could be wrong. Awesome tab, Great Job.
~Peace
*GOD Bless

To add a comment for this tab, please visit the version of this guitar tab on it's home site, Christian Guitar Resources.



© 2005 MickMel - All Right Reserved - Privacy Statement