:: Home > Tabs > C > Camp, Jeremy > Breathe

Jeremy Camp - Breathe


This tab has not yet been rated for accuracy.To rate this tab, please visit the version of this guitar tab on it's home site, Christian Guitar Resources.

Click here for a plain text version of this song (for better printing)




#----------------------------------PLEASE NOTE---------------------------------#
#This file is the author's own work and represents their interpretation of the #
#song. You may only use this file for private study, scholarship, or research. #
#------------------------------------------------------------------------------#


Hey everyone. This is an awesome song by Jeremy Camp. Its a really simple song
once you get the timing down.
Drop D tuning-D-A-D-G-B-E
Jeremy Camp-Breathe
The song starts out with a wierd type of pedal effect. Then normal distortion.

Verse 1 & 2
e----------------------------------------------------------------------------
b----------------------------------------------------------------------------
g----------------------------------------------------------------------------
d--8--3-----5-5-----5-------------5-5----------------------------------------
a--8--3-----5-5-----5--(12x)------5-5----------------------------------------
d--8--3-----5-5-----5-------------5-5----------------------------------------
                   P.M.
The first two fives are played open then the rest are palm muted. 
It has a squeak to it. It
changes back and forth on the verses.

Pre Chorus
D--13-----3-1-----------          After bridge this is palm muted.
A--13-----3-1-----------
D--13-----3-1-----------

Chorus
D-5---1---8---3-------------------------
A-5---1---8---3-------------------------  2x
D-5---1---8---3-------------------------

cant figure out the bridge


Outro
D--5--1--8--3--1--------
A--5--1--8--3--1--------
D--5--1--8--3--1--------


Thats all there is to it. I wish I could figure out the bridge. 
It doesnt sound that hard but I still cant get it oh well.



Comments about this tab

To add a comment for this tab, please visit the version of this guitar tab on it's home site, Christian Guitar Resources.



© 2005 MickMel - All Right Reserved - Privacy Statement