:: Home > Tabs > J > Joel, Phil > Changed

Phil Joel - Changed


This tab has been rated a 4.00 out of 5 for accuracy.
(1 vote)
To rate this tab, please visit the version of this guitar tab on it's home site, Christian Guitar Resources.

Click here for a plain text version of this song (for better printing)




#----------------------------------PLEASE NOTE---------------------------------#
#This file is the author's own work and represents their interpretation of the #
#song. You may only use this file for private study, scholarship, or research. #
#------------------------------------------------------------------------------#


Song: Changed
Artist: Phil Joel
Tabbed by: Jeremy Ferguson 

This is my first time submitting a tab on CGR :)
Always been a fan of Phil Joel and I love this song.

 
The main progression starts the song and plays in the background 
for most of the song:

 Main guitar riff                            Repeats through song    
E----------------------------------------------------------------
B--------1-------------1-----------------------------------------
G----------0--------------0-------------------0------------------
D-----------------3---------------------0h2----------------------
A----0--------------------------3-------------------0h2----0h2---
E----------------------------------------------------------------

The main power chords are pretty easy (just hold your fingers 
the same way and slide up and down the neck:

Power chords come in after about 
he sixth time around with the riff 

   A5      F5      C5      G5
E---------------------------------
B---------------------------------
G---------------------------------
D---7------3-------10-------5-----
A---7------3-------10-------5-----
E---5------1-------8--------3-----

Last but not least dont forget 
the the strumming/picking chords:

Intro and chorus,

am__F__C__G

Verse,

C__F__C__F

Pre chorus,

G__am__F

And thats about it...the song is set up a little weird 
so you will have to use some judgement at the bridges. 
But it sounds just fine using basic chords with a little 
CCR rhythm.

Lord Bless :)





Comments about this tab

thelawing - 2007-01-18
I think the last part of the rift should be like this...
E----------------------------------------------------------------
B--------1-------------1-----------------------------------------
G----------0--------------0-------------------0------------------
D-----------------3---------------------0h2----------------------
A----0--------------------------3-------------------------2----0-
E--------------------------------------------------3-------------
R6@WKU - 2007-02-17
e-------------------------------------------------------------
B--------1-------------1--------------------------------------
G----------0--------------0-------------------0---------------
D-----------------3---------------------0h2-------------------
A----0--------------------------3-----------------------0h2---
E-------------------------------------------------3-----------

Do that and then repeat

I think thats it.

To add a comment for this tab, please visit the version of this guitar tab on it's home site, Christian Guitar Resources.



© 2005 MickMel - All Right Reserved - Privacy Statement