:: Home > Tabs > D > Disciple > I Feel You

Disciple - I Feel You


This tab has been rated a 4.00 out of 5 for accuracy.
(1 vote)
To rate this tab, please visit the version of this guitar tab on it's home site, Christian Guitar Resources.

Click here for a plain text version of this song (for better printing)




#----------------------------------PLEASE NOTE---------------------------------#
#This file is the author's own work and represents their interpretation of the #
#song. You may only use this file for private study, scholarship, or research. #
#------------------------------------------------------------------------------#


ok...i love this awesome NEW song by Disciple, it is called "I Feel You" I 
got this CD at Creation NW so it is freakin new...the cd is called 
"rise up[dualdisc]" its got four sample songs on it for their new record.
 anyway, i thought i would tab it cuz its pretty ez and awesome.

song-I Feel You
artist-Disciple
album-Rise Up [DualDisc]
tuning-drop C

im gunna break this down in riffs ok? the song doesnt really have a "verse"
and a "chorus", the whole song is based one riff. and goes "123123123123"

Intro
-:08-
(before he starts the riff, does a short but quick scratch on the low C)
d-----------
a-----------
f-----------
c-----------just over and over
g-----------
c--710p777--

(this is the main riff for the whole song. pretty ez)
d------------
a------------
f------------
c---710p777--
g---710p777--
c---710p777--
(he starts singing at -:20-...fyi)

-:44-and at-:50-
d--------------
a--------------
f--------------
c--12-125--5--
g--0--0--5--5--
c--0--0--5--5--

-:55-and at-1:01-
d--------------
a--------------
f--------------
c--0--5--3--8--
g--0--5--3--8--
c--0--5--3--8--

-2:00-
d--------------
a--------------
f--------------
c--0--5--4--3--
g--0--5--4--3--
c--0--5--4--3--
            ^ this is either 3rd fret or fourth...im not sure
-2:11-
d-----------------
a-----------------
f-----------------
c--0--5--4--5--4--
g--0--5--4--5--4--
c--0--5--4--5--4--

-2:20-
d----------------------------------------------
a----------------------------------------------
f----------------------------------------------
c---7--------7----------------7----------------(2x)
g---7--------7----------------7----------------
c---710p777--710p7799910p777--710p7799910p777--
                   ***(<-harmonics) ***
-2:32-
d----------------------vthis is 3 "11s"--
a--------------------111111---------------
f--141414141414141414---------------------
c---^this is 9 "14s"---------------------(16 times)
g-----------------------------------------
c-----------------------------------------
(thru out this part...the "bridge" if you may...there are slide harmonics. but 
i guess you dont to worry about it cuz its all one guitar in concert)

-3:19-and at-3:30-and at-3:36-
d--------------
a--------------
f--------------
c--0--10-5--8--
g--0--10-5--8--
c--0--10-5--8--

-3:24-
d--------------
a--------------
f--------------
c--0--10-5--3--
g--0--10-5--3--
c--0--10-5--3--

ending
d----------------------------------------------
a----------------------------------------------
f----------------------------------------------
c---710p777--710p7799910p777--710p7799910p777--(for as long as your heart 
g---710p777--710p7799910p777--710p7799910p777-- desires)
c---710p777--710p7799910p777--710p7799910p777--
                   ***(<-harmonics) ***
 well when you get this song, i hope this will help you learn it...and i hope 
that this is not too confusing...its the only way i could think of doing it so,
rate it please when you can and thanx for reading my tab

Jstel



Comments about this tab

To add a comment for this tab, please visit the version of this guitar tab on it's home site, Christian Guitar Resources.



© 2005 MickMel - All Right Reserved - Privacy Statement