:: Home > Tabs > D > Disciple > Shine Down

Disciple - Shine Down


This tab has been rated a 2.00 out of 5 for accuracy.
(2 votes)
To rate this tab, please visit the version of this guitar tab on it's home site, Christian Guitar Resources.

Click here for a plain text version of this song (for better printing)




#----------------------------------PLEASE NOTE---------------------------------#
#This file is the author's own work and represents their interpretation of the #
#song. You may only use this file for private study, scholarship, or research. #
#------------------------------------------------------------------------------#


the tuning is in Drop C

intro:

c-------------------------------------------<3>
g----------------------------------------------
C-0-0--0-0--0-0--0-0--0--0-0--0-0--0-0--0-0----

intro(continued):

g--------------------------------------------
C-0-0--0-0--0-0--0-0--0--0-0--0-0--0-0--0-0--
                                            
verse:

C-1-0--0-0-0-0-3-2-    8x
       . . . .

prechorus:
C-1-0---------0-0-0-0-3-2   2x
              . . . .

chorus:
(you will have to figure out the strumming pattern)
d -7---3---10---5---
a 10---6---13---8---
f -9---5---12---7---     2x
c -7---3---10---5---
g -7---3---10---5---
C -7---3---10---5---

intro

verse

prechorus

chorus

bridge:

C-0-0--0-0--0-0--0-0--0h2--0-0--0-0--0-0--0-0--1h3

brige(continued)
C-0-0--0-0--0-0--0-0--0h2--0-0--0-0--0-0--0-0--3p1

chorus(clean)

chorus

bridge



Comments about this tab

To add a comment for this tab, please visit the version of this guitar tab on it's home site, Christian Guitar Resources.



© 2005 MickMel - All Right Reserved - Privacy Statement