:: Home > Tabs > S > Sanctus Real > Eloquent

Sanctus Real - Eloquent


This tab has been rated a 4.00 out of 5 for accuracy.
(2 votes)
To rate this tab, please visit the version of this guitar tab on it's home site, Christian Guitar Resources.

Click here for a plain text version of this song (for better printing)




#----------------------------------PLEASE NOTE---------------------------------#
#This file is the author's own work and represents their interpretation of the #
#song. You may only use this file for private study, scholarship, or research. #
#------------------------------------------------------------------------------#


Song: Eloquent
Artist: Sanctus Real
Album: The Face of Love
Copyright Sparrow Records
Tuning: Drop C#(C#G#C#F#A#D#)


h=hammer on
r=let it ring
sd=slide down


Verse 1 Rhythm:
D# | -----------------------------------------|
A# | -----------------------------------------|
F# | -9-9-9-9---7-7-7-7-----------------------|
C# | -7-7-7-7---7-7-7-7---5-5-5-5-------------|2x
G# | -7-7-7-7---5-5-5-5---5-5-5-5-------------|
C# | -7-7-7-7-------------5-5-5-5-------------|


Then Lead:
D# | -----------------|
A# | -5-3-1-3---------|
F# | ---------5h2-----|
C# | -----------------|


Then Rhythm:
D# | ------------------------------------|
A# | ------------------------------------|
F# | -9-9-9-9---7-7-7-7------------------|
C# | -7-7-7-7---7-7-7-7---5-5-5-5--------|3x
G# | -7-7-7-7---5-5-5-5---5-5-5-5--------|
C# | -7-7-7-7-------------5-5-5-5--------|


Then Lead plays:
D# | ----------------------|
A# | -5-3-1-3--------------|
F# | -----------5h2--------|


Chorus:
D# | -----------------------------------|
A# | -----------------------------------|
F# | -5-5-5-5---9-9-9-9---7-7-7-7-------|
C# | -3-3-3-3---7-7-7-7---5-5-5-5-------|2x
G# | -3-3-3-3---7-7-7-7---5-5-5-5-------|
C# | -3-3-3-3---7-7-7-7---5-5-5-5-------|


Lead:
D# | -12r------12-13-15--|2x


Post-Chorus Lead guitar:
F# | -9-9-9sd-|
C# | -9-9-9sd-|
G# | -7-7-7sd-|


Rhythm Guitar (some kind of effect:
D# | ----------------------------------|
A# | ----------------------------------|
F# | -9-9-9-9--7-7-7-7-----------------|
C# | -7-7-7-7--7-7-7-7---5-5-5-5-------|
G# | -7-7-7-7--5-5-5-5---5-5-5-5-------|
C# | -7-7-7-7------------5-5-5-5-------|


Verse 2: play verse 1 twice


Chorus 4x


Bridge:
D# | --------------------|
A# | --------------------|
F# | -9---------7--------|
C# | -9---------7--------|2x
G# | -7---------5--------|
C# | --------------------|


Chorus 3: Keyboard, then:
D# | -----------------------|
A# | -----------------------|
F# | -9-9-9-9---7-7-7-7-----|
C# | -7-7-7-7---5-5-5-5-----|
G# | -7-7-7-7---5-5-5-5-----|
C# | -7-7-7-7---5-5-5-5-----|


Then Rhythm:
D# | ------------------------------------|
A# | ------------------------------------|
F# | -5-5-5-5---9-9-9-9---7-7-7-7--------|
C# | -3-3-3-3---7-7-7-7---5-5-5-5--------| 5x
G# | -3-3-3-3---7-7-7-7---5-5-5-5--------|
C# | -3-3-3-3---7-7-7-7---5-5-5-5--------|


Lead:
D# | -12r------12-13-15----|5x


Ending Rhythm:
D# | ---------------------------------|
A# | ---------------------------------|
F# | -9xxxx--9xxxx--9xxxx--9xxxx-9----|
C# | -9xxxx--9xxxx--9xxxx--9xxxx-9----|
G# | -7xxxx--7xxxx--7xxxx--7xxxx-7----|
C# | ---------------------------------|


Lead Plays:
D# | -12r--| until end of song



Then lead Plays:
D# | -----------|
A# | -----------|
F# | -7h9-7-5-0-|
C# | -----------|


Lead ends on an Am:
D# | ---|
A# | -1-|
F# | -2-|
C# | -2-|
G# | -0-|
C# | ---|



God Bless,
tl_guitarnut



Comments about this tab

To add a comment for this tab, please visit the version of this guitar tab on it's home site, Christian Guitar Resources.



© 2005 MickMel - All Right Reserved - Privacy Statement