:: Home > Tabs > P > Plumb > Good Behavior

Plumb - Good Behavior


This tab has not yet been rated for accuracy.To rate this tab, please visit the version of this guitar tab on it's home site, Christian Guitar Resources.

Click here for a plain text version of this song (for better printing)




#----------------------------------PLEASE NOTE---------------------------------#
#This file is the author's own work and represents their interpretation of the #
#song. You may only use this file for private study, scholarship, or research. #
#------------------------------------------------------------------------------#


Band:Plumb
Album:Chaotic Resolve
Song: Good Behavior

Drop D Tuning

Intro
1st guitar
E-------------------
B-------------------
G-------------------
D-1-1-1-1-0-1-3-1-0-
A-------------------
D-------------------

  2nd Guitar
E----------------------
B----------------------
G----------------------
D----------------------
A-1-0-1-0-1-0-1-0-1-10-
D-1-0-1-0-1-0-1-0-1-10-

Verse
After "Of a virtous game" and "trying to scream"
E------------------------------------------
B------------------------------------------
G------------------------------------------
D-----------10-10-10--8-8-8--7-7-7--5-7-5--
A----6-6-6---------------------------------
D------------------------------------------

Pre-Chorus
E----------------------------------------------------
B----------------------------------------------------
G-3-3-3-3-3-3-3-3-3-3--5-5-5-5--7-7-7-7-7-7-7-7-7-7--   
D-3-3-3-3-3-3-3-3-3-3--5-5-5-5--7-7-7-7-7-7-7-7-7-7--     x2
A-1-1-1-1-1-1-1-1-1-1--3-3-3-3--5-5-5-5-5-5-5-5-5-5--
D----------------------------------------------------
          Bb              C             D

Chorus
E-
B-
G-
D-
A-1-0-1-0-1-0-1-0-1-10
D-1-0-1-0-1-0-1-0-1-10

2 Verse

2 Pre-Chorus

2 Chorus

Bridge NO guitars 
Play intro at end of bridge

3 Chorus

 Correct me if you see anything wrong



Comments about this tab

To add a comment for this tab, please visit the version of this guitar tab on it's home site, Christian Guitar Resources.



© 2005 MickMel - All Right Reserved - Privacy Statement