:: Home > Tabs > D > Disciple > Shine Down

Disciple - Shine Down


This tab has been rated a 0.00 out of 5 for accuracy.
(1 vote)
To rate this tab, please visit the version of this guitar tab on it's home site, Christian Guitar Resources.

Click here for a plain text version of this song (for better printing)




#----------------------------------PLEASE NOTE---------------------------------#
#This file is the author's own work and represents their interpretation of the #
#song. You may only use this file for private study, scholarship, or research. #
#------------------------------------------------------------------------------#


ok, this song is also in standard tuning. 

intro

E-----------------------------------------------------------------------------
B-----------------------------------------------------------------------------
G-----------------------------------------------------------------------------
D-----------------------------------------------------------------------------
A---0-0-0-0-0-0-0-0----0-0-0-0-0-0-0-0--x(3)----------------------------------
E---0-0-0-0-0-0-0-0----0-0-0-0-0-0-0-0--x(3)----------------------------------

verse

E-----------------------------------------------------------------------------
B-----------------------------------------------------------------------------
G-----------------------------------------------------------------------------
D-----------------------------------------------------------------------------
A-----------------------------------------------------------------------------
E---2-0---x-x-x-x---3-1-------------------------------------------------------

bridge (1 & 2)

E-----------------------------------------------------------------------------
B-----------------------------------------------------------------------------
G-----------------------------------------------------------------------------
D-----------------2-0---------------------------------------------------------
A-----------------------------------------------------------------------------
E---2-0---x-x-x-x-------------------------------------------------------------

chorus (guitar 1 clean)

E-----------------------------------------------------------------------------
B-----------------------------------------------------------------------------
G-----------------------------------------------------------------------------
D-------7-------6-------8---------7-------------------------------------------
A-----7-------6-------8---------7---------------------------------------------
E---5-------4-------6---------5-----------------------------------------------

chorus (guitar 2)

E-----------------------------------------------------------------------------
B-----------------------------------------------------------------------------
G-----------------------------------------------------------------------------
D---7--------5--------9--------7----------------------------------------------
A---7--------5--------9--------7----------------------------------------------
E---5--------3--------7--------5----------------------------------------------

this is played after the 3rd chorus

E-----------------------------------------------------------------------------
B-----------------------------------------------------------------------------
G-----------------------------------------------------------------------------
D--------------------2-3-------------------3-4-------------------3-2-5-hold---
A---0-0-0-0-0-0-0-0-------0-0-0-0-0-0-0-0-------0-0-0-0-0-0-0-0---------------
E---0-0-0-0-0-0-0-0-------0-0-0-0-0-0-0-0-------0-0-0-0-0-0-0-0---------------

that is also the outro, thankyou for requesting this song, or else i probaly
wouldnt think of tabbing this song



Comments about this tab

Disciple Freak - 2006-11-18
Sorry guys, this is in drop c

To add a comment for this tab, please visit the version of this guitar tab on it's home site, Christian Guitar Resources.



© 2005 MickMel - All Right Reserved - Privacy Statement