:: Home > Tabs > D > Disciple > Rise Up

Disciple - Rise Up


This tab has been rated a 3.00 out of 5 for accuracy.
(2 votes)
To rate this tab, please visit the version of this guitar tab on it's home site, Christian Guitar Resources.

Click here for a plain text version of this song (for better printing)




#----------------------------------PLEASE NOTE---------------------------------#
#This file is the author's own work and represents their interpretation of the #
#song. You may only use this file for private study, scholarship, or research. #
#------------------------------------------------------------------------------#


tune to drop c tunning (c, g, c, f, a, d,)


intro
|-------------------------------------------------------------------
|-------------------------------------------------------------------
|---------3-5-------------------------------------------------------           
|-----------------3-5-----------------------------------------------
|-----3-5-----------------------------------------------------------   
|-0-0---------0-0-----0-0-------------------------------------------

not perfect but you can figurre it out from this

the intrelude
|-------------------------------------------------------------------
|-------------------------------------------------------------------
|-------------------------------------------------------------------
|-------------------------------------------------------------------
|-0-0-2-2h3-3-3-2-0-2-2---------------------------------------------
|-0-0-2-2h3-3-3-2-0-2-2---------------------------------------------

then play this at the end
|-------------------------------------------------------------------
|-------------------------------------------------------------------
|-8-8-8-------------------------------------------------------------
|-x-x-x-------------------------------------------------------------
|-6-6-6-------------------------------------------------------------
|-------------------------------------------------------------------

then the verse
|-------------------------------------------------------------------
|-------------------------------------------------------------------
|----7------7-------------------------------------------------------
|------3h5----3h5-7-7-7-5-------------------------------------------
|-------------------------------------------------------------------
|-0----------------------0------------------------------------------

then pre-chourus
|-------------------------------------------------------------------
|-------------------------------------------------------------------
|-------------------------------------------------------------------
|------------------------------------------------------------0------
|---------------hit pinch harmonic here-->--5----------------0------
|-0-0-0------------------------------0-0-0------0------------0------

if you dont know how to do a pinch harmonic just hit 12 on the top string, 
but it sounds better if you hit the harmonic.

|-------------------------------------------------------------------
|-------------------------------------------------------------------
|-------8-8-8-8---------8-8-8-------8-8-8-8-------8-8-8-------------
|-------x-x-x-x---------x-x-x-------x-x-x-x-------x-x-x-------------
|-------6-6-6-6---------6-6-6-------6-6-6-6-------6-6-6-------------
|-0-0-------------0-0----------0-0-----------0-0--------------------





Comments about this tab

schecterc1lh - 2006-05-13
SORRY GUYS ON THE PRECHOURUS IT IS THIS, NOT THE PINCH HARMONIC.

|--------------------------------------------------------------------
|--------------------------------------------------------------------
|---------------------------------8----------------------------------
|---------------------------------X----------------------------------
|---------------------------------6----------------------------------
|--0-0-0-------------------0-0-0-----0-------------------------------
Disciple Freak - 2006-05-17
this should be the verse

F--------------------------------------------
A--------------------------------------------
D-------------7--------7---------------------
C----------7--------7-----6-5-4--------------
G-------5--------5---------------------------
C----0---------------------------------------

but u did a very good job!
schecterc1lh - 2006-05-20
SORRY GUYS NOTHER CORRECTION
ON THE INTRO INSTEAD OF IT BEING ON 3 AND 5 IT SHOULD BE ON 5 AND 7
ROBBY_tabber - 2006-11-07
Dude, no offense really, but this is not a good tab.......i made my own....but they wont post it for some reason.......does it take like a week?

To add a comment for this tab, please visit the version of this guitar tab on it's home site, Christian Guitar Resources.



© 2005 MickMel - All Right Reserved - Privacy Statement