:: Home > Tabs > C > Camp, Jeremy > This Man

Jeremy Camp - This Man


This tab has been rated a 5.00 out of 5 for accuracy.
(3 votes)
To rate this tab, please visit the version of this guitar tab on it's home site, Christian Guitar Resources.

Click here for a plain text version of this song (for better printing)




#----------------------------------PLEASE NOTE---------------------------------#
#This file is the author's own work and represents their interpretation of the #
#song. You may only use this file for private study, scholarship, or research. #
#------------------------------------------------------------------------------#


Artist: Jeremy Camp
Song: This Man

I wanted to do this song with my band for an upcoming concert and found the
the tabs to be quite helpful but somewhat difficult and a bit rough.  A capo
on the first fret should make it much easier.  Thanks!  - David B.

*Capo 1st fret*

INTRO/VERSE
e ----------------------------------------------------------------
B ---0-----0---------0-----0---------0-----0---------0-----0------
G -----0-----0---0-----0-----0---0-----0-----0---0-----0-----0---0
D ----------------------------------------------------------------
A -3-----5-----5---2-----3-----3---3-----5-----5---2-----3-----3--
E ----------------------------------------------------------------

e ----------------------------------------------------------------
B ---0-----0---------0-----0---------0-----0---------0-----0------
G -----0-----0---0-----0-----0---0-----0-----0---0-----0-----0---0
D ----------------------------------------------------------------
A -3-----5-----5---7-----7-----7---5-----5-----5---5-----5-----5--
E ----------------------------------------------------------------

CHORUS
      Em     C     G    D/F#                  C
e -----0-----0-----3-----2-----          -----0-----
B -----0-----1-----0-----3-----          -----1-----
G -----0-----0-----0-----2-----   (4x)   -----0-----
D -----2-----2-----0-----0-----          -----2-----
A -----2-----3-----2-----0-----          -----3-----
E -----0-----0-----3-----2-----          -----0-----

BRIDGE

e -----0-----0-----0-----0-----0-----0-----
B -----1-----0-----1-----3-----1-----0-----
G -----0-----2-----0-----2-----0-----2-----
D -----2-----2-----2-----0-----2-----2-----
A -----3-----0-----3-----0-----3-----0-----
E -----0-----0-----0-----0-----0-----0-----



Comments about this tab

Longo042 - 2006-11-20
Nice tab dude. i love this song!!

To add a comment for this tab, please visit the version of this guitar tab on it's home site, Christian Guitar Resources.



© 2005 MickMel - All Right Reserved - Privacy Statement