:: Home > Tabs > S > Starflyer 59 > Wake Up Early

Starflyer 59 - Wake Up Early


This tab has not yet been rated for accuracy.To rate this tab, please visit the version of this guitar tab on it's home site, Christian Guitar Resources.

Click here for a plain text version of this song (for better printing)




#----------------------------------PLEASE NOTE---------------------------------#
#This file is the author's own work and represents their interpretation of the #
#song. You may only use this file for private study, scholarship, or research. #
#------------------------------------------------------------------------------#


Off of "I Am the Portuguese Blues" Album

this is my first tab with weird bends so it might be wrong.

Intro Riff

e--------------------------------------------------
B--------------------------------------------------
G--12b14-12b14-12b14-12b14-12b14--10-10-10-10-9-9-9     x2
D--------------------------------------------------
A--------------------------------------------------
E--------------------------------------------------

Verse

e--------------------------------------------------------------------
B--------------------------------------------------------------------
G--7-7-7-7-7-7-7-7--5-5-5-5-5-5-5-5----------------------------------   x2
D--7-7-7-7-7-7-7-7--5-5-5-5-5-5-5-5--5-5-5-5-5-5-5-5--3-3-3-3-3-3-3-3
A--5-5-5-5-5-5-5-5--3-3-3-3-3-3-3-3--5-5-5-5-5-5-5-5--3-3-3-3-3-3-3-3
E------------------------------------3-3-3-3-3-3-3-3--1-1-1-1-1-1-1-1

Chorus

e------------------------------------------------------------------------
B------------------------------------------------------------------------
G--12b14b12--10b12b10-10b12b10-10b12b10-10b12b10-10b12b10-10b12b10--9-9-9  x2
D------------------------------------------------------------------------
A------------------------------------------------------------------------
E------------------------------------------------------------------------

e----x-x-x-x-x------x-x-x-x-x
B----x-x-x-x-x------x-x-x-x-x
G----x-x-x-x-x------x-x-x-x-x
D--7-x-x-x-x-x--5-7-x-x-x-x-x
A--7-x-x-x-x-x--5-7-x-x-x-x-x
E--5-x-x-x-x-x--3-5-x-x-x-x-x


after that just repeat the whole thing again.

i couldnt figure out the solo.sorry :(



Comments about this tab

underoathrocks - 2006-07-23
I'll try to figure out the solo, but for the part that you have, it's 5 stars!

To add a comment for this tab, please visit the version of this guitar tab on it's home site, Christian Guitar Resources.



© 2005 MickMel - All Right Reserved - Privacy Statement