:: Home > Tabs > T > Third Day > Don't Let Me Go

Third Day - Don't Let Me Go


This tab has been rated a 5.00 out of 5 for accuracy.
(1 vote)
To rate this tab, please visit the version of this guitar tab on it's home site, Christian Guitar Resources.

Click here for a plain text version of this song (for better printing)




#----------------------------------PLEASE NOTE---------------------------------#
#This file is the author's own work and represents their interpretation of the #
#song. You may only use this file for private study, scholarship, or research. #
#------------------------------------------------------------------------------#


i'm resubmitting my tab on don't let me go by third day, i've changed nothing
except i inserted all the hyphens everywhere, and i made it narrower. if you 
would, please delete the other tab.

Don't Let Me Go, by Third Day- secret song at the end of Offerings.
This is the complete tab with the solo and all.

verse
   D                     C              D     G
E--2--2--2--2---2--2--2--0--0--0--0--0--2--2--3--3--3--3------3--3--3----3--3
B--3--3--3--3---3--3--3--1--1--1--1--1--3--3--0--0--0--0------0--0--0----0--0
G--2--2-----0h2-2-----0--0--0--0--0--0--2--2--0--0------------0--0--0----0--0
D--0--0-----0---0-----0--2--2--------2--0--0--0--0------------0--0--0----0--0
A------------------------3--3--------3--------2--2--------0h2----------2-----
E---------------------------------------------3--3--------3------------3-----
||:

E------3--3--3
B------0--0--0
G------0--0--0
D------0--0--0    
A--0h2--------
E--3----------
           :||     x2

chorus
   C                                 G
E-----------------------------0-0-0--3--3--3-3-3-3-----3-3-----3-3-3
B---------------1------1------1-1-1--0--0--0-0-1-0-----0-0-----0-0-0
G--------0----0--------0--0---0-0-0--0--0--0-0-2-0-----0-0-----0-0-0
D----0h2----3--------2----0h2--------0--0--0-0-0-0-----0-0-----0-0-0
A--3---------------3------3----------2--2-----------2--2---0h2------
E------------------------------------3--3-----------3--3---3--------

    D                  C            D    G
E---2--2-2-2----2-2-2-----0--0-0----2-2--3--3--3-3-----3-3-----3
B---3--3-3-3----3-3-3-----1--1-1----3-3--0--0--0-0-----0-0-----0
G---2--2---0h2--2-2-0--0--0--0-0-0--2-2--0--0--0-------0-0-----0
D---0--0---0----0-0-0--2---------2--0-0--0--0--0-------0-0-----0
A----------------------3---------3-------2--2------0h2------2--2
E----------------------------------------3--3------3--------3--3

the electric guitar varies a little bit in the second verse, takes a different
tone, but plays more or less the same. i think the acoustic guitar strums the 
chords throughout, probably doing the hammer-ons. 
then the chorus again

now the solo:
   D              C        D        G
E---------------------------------------------------------------------
B------7---8p7--------8---------10-------12----13p12-------12-------12
G--------------7--7/9----9-9/11-------------12-------12-------12------
D--5b*------------------------------10b*----------------12-------12---
A---------------------------------------------------------------------
E---------------------------------------------------------------------
   *1 full note
   D           C       D       G
E----------5------------------------10-------10-----
B------7-----7-----8--------10-10b*----10-10----10b*
G--------------7/9---9-9/11-------------------------
D--5b*----------------------------------------------
A---------------------------------------------------
E---------------------------------------------------
                               hold--------- release

back to the chorus, and the song ends with the first part of the solo again.
have fun! play it in church- the people will love it, even if they don't like 
rock & roll. God Bless!



Comments about this tab

ezzep - 2008-02-12
Actually, what the guitarist did was he used a slide to play the solo. It's similar to how a steel guitar is played, but it's just a cheaper and easier way to get the same sound. I've been after this song for quite a while now. I just got burned out after a while trying to nail the solo, and you really helped me out! Thanks a lot!

To add a comment for this tab, please visit the version of this guitar tab on it's home site, Christian Guitar Resources.



© 2005 MickMel - All Right Reserved - Privacy Statement