:: Home > Tabs > T > Third Day > These Thousand Hills

Third Day - These Thousand Hills


This tab has been rated a 4.50 out of 5 for accuracy.
(6 votes)
To rate this tab, please visit the version of this guitar tab on it's home site, Christian Guitar Resources.

Click here for a plain text version of this song (for better printing)




#----------------------------------PLEASE NOTE---------------------------------#
#This file is the author's own work and represents their interpretation of the #
#song. You may only use this file for private study, scholarship, or research. #
#------------------------------------------------------------------------------#


This is my version of the song...tuned HALF STEP DOWN...
this one plays along with the CD 
version unlike the other ones i've seen...so enjoy this=) 

i have both versions tabbed...2nd guitar is at the bottom...
mind you the whole song
isn't tabbed here...but based on this it wouldn't be too hard to figure out

GUITAR ONE!
H=Hammer
E---0-----0------0-----0------------------------------0-----0----|
B-----2-3H-3-2-----2-3H-3-2---0----0------0----0--------2-3H-3-2-|
G--2-2----------2-2------------1-2H-2-1----1-2H-2-1--2-2---------|
D----------------------------2-----------2-----------------------|
A-0------------0------------------------------------0------------|
E---------------------------0-----------0------------------------|
 Hiiiiills roll...     ...Oooof A Mighty God    ...my knees in

E---5-2-3H-2------0-----0--|
B--3-3------5-3----2-0-0-0-|
G-2--------------2---------|
D--------------------------|
A---------------0----------|
E---------------------0----|
praise...


GUITAR TWO!!
Verse:
E------------------------------0------0------0------0------------------|
B-----------------------------0-0-0-2H-2-0----0-0-2H-2-0---------------|
G----2----2-------2----2-----1-----------------------------2----2------|
D-----2-4H-4-2-----2-4H-4-2-----------------2---------------4-2H-4-2---|
A-0------------0-----------------------------------------0-------------|
E------------------------------------------0---------------------------|


E-----------------------|
B-----------------------|
G----2-0---------2------|
D-0-0-0-4-2-0---------2-|
A-------------0---------|
E------------------0----|

Refrain: (the "lala" part)

E-7-9-7-9-7-9--7-9-7-9-7-9--------------------------------------|
B---------------------------10-12-10-12-10-12-10-12-10-12-10-12-|
G-----9---9--------9---9----9-----9-----9-----9-----9-----9-----|
D---------------------------------------------------------------|
A-0------------0------------------------------------------------|
E---------------------------------------------------------------|
 lalalalalala lalalalalala  lala  lala  lala  lala  lala  lala

E-7-9-7-9-7-9--7-9-7-9-7-9--7-9-7-9--------------7-9--|H
B-----------------------------------10-12--10-12------|
G-----9---9------------9----9---9---9------9-----9----|
D--------------0---7----------------------------------|
A-0----------------------------------------------0----|
E-----------------------------------------------------|
 lala lala lalalalalalalala lala lala lalalala  lala

Guitar two is definatly a LOT harder than guitar one...
but stick with it and it shouldn't
take you too long to figure it out...
have fun jammin'!:D



Comments about this tab

j3susfreak - 2005-10-10
the refrain is easiest to hand pick by the way...
qtpie - 2005-10-10
awsome song=P i can't tab songs..goodwork!! thumbs up dudeee!
angelsfreeek - 2006-03-03
i was just playing the beginning and i think it sounds a little better like this.

e---0-----0-----
B------2h3--2---
G--2-2-------2--
D---------------
A-0-------------
E---------------
angelsfreeek - 2006-03-09
ack ignore my last post. it sounds a lot better like this:

e---0-----0-----
B------2/3--3---
G--2-2--------2-
D---------------
A-0-------------
E---------------
guitarplayer101 - 2006-05-24
If anyone knows a version is standard tuning, let me know. It sounds great, its just I don't like tuning and untuning my guitar. Great tab.
Third_Day_Rocks - 2006-06-09
You can play the song in standard tuning with either a capo on the 1st or 4th fret.

4th fret:
Intro:
e|---------------------|
B|-----0-------0-------|
G|---------1h2---2-----|
D|---2---2---------2---|
A|---------------------|
E|-0-------------------|

To add a comment for this tab, please visit the version of this guitar tab on it's home site, Christian Guitar Resources.



© 2005 MickMel - All Right Reserved - Privacy Statement