:: Home > Tabs > C > Camp, Jeremy > Nothing Else I Need

Jeremy Camp - Nothing Else I Need


This tab has been rated a 5.00 out of 5 for accuracy.
(2 votes)
To rate this tab, please visit the version of this guitar tab on it's home site, Christian Guitar Resources.

Click here for a plain text version of this song (for better printing)




#----------------------------------PLEASE NOTE---------------------------------#
#This file is the author's own work and represents their interpretation of the #
#song. You may only use this file for private study, scholarship, or research. #
#------------------------------------------------------------------------------#


This is my first tab but I think it goes like this:

E-------------
B----0-----0--
G---5-5---5-5-    **NOTE: Bass guitar is playing C,A,F,G during this acoustic
D--5-----5----    picking throught the verse. Bass walkdown in pre-chorus 
A-3-----3-----    is G,A,G,E,F. Repeat thru verse.
E------------- 

Guitar chords can also be played:

Verse:

C  Am  F  G  (x3)

Pre-chorus:

G  Am  G  Em  Fm

Chorus:

C  G  F  Am  G  C (x2)

Bridge:

Am  C
Am  C
Am  Fm



Fm

E-1
A-1
G-1
D-3
A-3
E-1



Comments about this tab

cleary2 - 2005-10-13
sounds dead on great job:)
kutless73 - 2005-12-06
Please rate my first tab thanks!! :o)
kylejohn4543 - 2006-05-29
There should be more to the verse than that
philmo11 - 2006-08-09
Try this

E-----------------------------
B----0----0---0----0---0----0-
G---5-5--5-5-5-5--5-5-5-5-5--5
D-------5--------5---------5--
A--3---3----0---0----5---5----
E-----------------------------
sac346 - 2006-09-08
Could anyone tab the second guitar in the outro? I would like to play it up in frount of my church with my band, but would also like the second guitar.
Sac346
FenderNl05 - 2006-11-07
+++++Intro++++

e|--------------------------------------------------------------------|
B|------0------0---------0------0---------0------0---------0------0---|
G|-----5-5----5-5-------5-5----5-5-------5-5----5-5-------5-5----5-5--|
D|-----------5----------------5----------------5----------------5-----|
A|---3------3---------0------0----------------------------------------|
D|-------------------------------------3------3---------5------5------|

FenderNl05 - 2006-11-07
You can pull of tuning back up to standard before the chorus. You can
see Jared doing stuff like that in the Unplugged DVD.
rockthecross09 - 2007-01-08
thanx soo much for the chords & tabs, but i really need the lyrics...

To add a comment for this tab, please visit the version of this guitar tab on it's home site, Christian Guitar Resources.



© 2005 MickMel - All Right Reserved - Privacy Statement