:: Home > Tabs > C > Camp, Jeremy > In Your Presence

Jeremy Camp - In Your Presence


This tab has been rated a 4.50 out of 5 for accuracy.
(2 votes)
To rate this tab, please visit the version of this guitar tab on it's home site, Christian Guitar Resources.

Click here for a plain text version of this song (for better printing)




#----------------------------------PLEASE NOTE---------------------------------#
#This file is the author's own work and represents their interpretation of the #
#song. You may only use this file for private study, scholarship, or research. #
#------------------------------------------------------------------------------#


So, this is my first try at a TAB... Oh well.

OK, The parentheticals are optional, I didn't want to have to 
figure out specifically when the recording does the hammer ons, plus I like to
throw in the little slidy thing sometimes just to spice it up a bit.

It should be pretty good; I think I got all the chord names... (with a couple
obvious exceptions) so it should be good to go.

I dont know the exact way it is strummed... I started trying to TAB it, but got
lazy.

You are smart people... listen to it an figure it out.

This is a great song, and a fun little riff to play, make it your own...

In Your Presence

by Jeremy Camp


Intro

    Em7            D2/F#            Cadd9
E[--0------0-0-----0------0-0-0------0-------0-0-0-------]
B[--3------3-3-----3------3-3-3------3-------3-3-3-------]
G[--0------0-0-----2------2-2-2------0-------0-0-0--0h2--]
D[--0h2----2-2-----0------0-0-0------0h2-----2-2-2-------]
A[--0h2----2-2-----0------0-0-0------0h3-----3-3-3-------]
E[--0------0-0-----2------2-2-2------0-------0-0-0-------]


    Em7            D2/F#            Cadd9
E[--0------0-0-----0------0-0-0------0-------0-0-0-----------]
B[--3------3-3-----3------3-3-3------3-------3-3-3-----------]
G[--0------0-0-----2------2-2-2------0-------0-0-0--2/4\2p0--]
D[--0h2----2-2-----0------0-0-0------0h2-----2-2-2-----------]
A[--0h2----2-2-----0------0-0-0------0h3-----3-3-3-----------]
E[--0------0-0-----2------2-2-2------0-------0-0-0-----------]


    Em7            D2/F#            Cadd9
E[--0------0-0-----0------0-0-0------0-------0-0-0-------]
B[--3------3-3-----3------3-3-3------3-------3-3-3-------]
G[--0------0-0-----2------2-2-2------0-------0-0-0--0h2--]
D[--0h2----2-2-----0------0-0-0------0h2-----2-2-2-------]
A[--0h2----2-2-----0------0-0-0------0h3-----3-3-3-------]
E[--0------0-0-----2------2-2-2------0-------0-0-0-------]


    Em7            D2/F#            Cadd9
E[--0------0-0-----0------0-0-0------0-------0-0-0-------]
B[--3------3-3-----3------3-3-3------3-------3-3-3-------]
G[--0------0-0-----2------2-2-2------0-------0-0-0-------]
D[--0h2----2-2-----0------0-0-0------0h2-----2-2-2-------]
A[--0h2----2-2-----0------0-0-0------0h3-----3-3-3-------]
E[--0------0-0-----2------2-2-2------0-------0-0-0-------]




Verse 1




    Em7            D2/F#            Cadd9
E[--0------0-0-----0------0-0-0------0-------0-0-0---------]
B[--3------3-3-----3------3-3-3------3-------3-3-3---------]
G[--0------0-0-----2------2-2-2------0-------0-0-0--(0h2)--]
D[--0h2----2-2-----0------0-0-0------0h2-----2-2-2---------]
A[--0h2----2-2-----0------0-0-0------0h3-----3-3-3---------]
E[--0------0-0-----2------2-2-2------0-------0-0-0---------]



    Em7            D2/F#            Cadd9
E[--0------0-0-----0------0-0-0------0-------0-0-0---------]
B[--3------3-3-----3------3-3-3------3-------3-3-3---------]
G[--0------0-0-----2------2-2-2------0-------0-0-0--(0h2)--]
D[--0h2----2-2-----0------0-0-0------0h2-----2-2-2---------]
A[--0h2----2-2-----0------0-0-0------0h3-----3-3-3---------]
E[--0------0-0-----2------2-2-2------0-------0-0-0---------]



    Em7            D2/F#            Cadd9
E[--0------0-0-----0------0-0-0------0-------0-0-0---------]
B[--3------3-3-----3------3-3-3------3-------3-3-3---------]
G[--0------0-0-----2------2-2-2------0-------0-0-0--(0h2)--]
D[--0h2----2-2-----0------0-0-0------0h2-----2-2-2---------]
A[--0h2----2-2-----0------0-0-0------0h3-----3-3-3---------]
E[--0------0-0-----2------2-2-2------0-------0-0-0---------]

     A7sus      Cadd9
E[--0-0-0-0----0-0-0-0------]
B[--3-3-3-3----3-3-3-3------]
G[--0-0-0-0----0-0-0-0------]
D[--2-2-2-2----2-2-2-2------]
A[--0-0-0-0----3-3-3-3------]
E[-------------0-0-0-0------]





Interlude 1

    Em7            D2/F#            Cadd9
E[--0------0-0-----0------0-0-0------0-------0-0-0---------]
B[--3------3-3-----3------3-3-3------3-------3-3-3---------]
G[--0------0-0-----2------2-2-2------0-------0-0-0---------]
D[--0h2----2-2-----0------0-0-0------0h2-----2-2-2---------]
A[--0h2----2-2-----0------0-0-0------0h3-----3-3-3---------]
E[--0------0-0-----2------2-2-2------0-------0-0-0---------]

To you alone...

    Em7            D2/F#            Cadd9
E[--0------0-0-----0------0-0-0------0-------0-0-0---------]
B[--3------3-3-----3------3-3-3------3-------3-3-3---------]
G[--0------0-0-----2------2-2-2------0-------0-0-0---------]
D[--0h2----2-2-----0------0-0-0------0h2-----2-2-2---------]
A[--0h2----2-2-----0------0-0-0------0h3-----3-3-3---------]
E[--0------0-0-----2------2-2-2------0-------0-0-0---------]





Verse 2 (same as verse 1)




Chorus



         G      D2/F#           Cadd9    A7sus       Cadd9
E[---------3-----0---------------0-------0------------0-----------]
B[---------3-----3---------------3-------3------------3-----------]
G[---------0-----2---------------0-------0------------0-----------]
D[---------0-----0---------------2-------2------------2-----------]
A[---------2-----0---------------3-------0------------3-----------]
E[---------3-----2---------------0--------------------0-----------]




    G      D2/F#           Cadd9    A7sus       Cadd9
E[----3-----0---------------0-------0------------0------------------]
B[----3-----3---------------3-------3------------3------------------]
G[----0-----2---------------0-------0------------0------------------]
D[----0-----0---------------2-------2------------2------------------]
A[----2-----0---------------3-------0------------3------------------]
E[----3-----2---------------0--------------------0------------------]




Interlude 2

    Em7(ish)      D2/F#    C(ish)   D(ish)       Em7(ish)   D2/F#   C(ish)
E[---0---0-0-------0-------0--0-0-0-0----0-0-0---0-0-0------0-------0----]
B[---8---8-8-------3-------5--5-5-/-7----7-7-7---8-8-8------3-------5----]
G[---0---0-0-------2-------0--0-0-0-0----0-0-0---0-0-0------2-------0----]
D[---5---5-5-------0-------2--2-2-/-4----4-4-4---5-5-5------0-------2----]
A[---7---7-7-------0-------3--3-3-/-5----5-5-5---7-7-7------0-------3----]
E[---0---0-0-------2-------0--0-0-0-0----0-0-0---0-0-0------2-------0----]




Verse 1 (again)



Chorus 2



         G      D2/F#           Cadd9    A7sus       Cadd9
E[---------3-----0---------------0-------0------------0------------------]
B[---------3-----3---------------3-------3------------3------------------]
G[---------0-----2---------------0-------0------------0------------------]
D[---------0-----0---------------2-------2------------2------------------]
A[---------2-----0---------------3-------0------------3------------------]
E[---------3-----2---------------0--------------------0------------------]




    G      D2/F#           Cadd9
E[----3-----0---------------0--0------]
B[----3-----3---------------3--3------]
G[----0-----2---------------0--0------]
D[----0-----0---------------2--2------]
A[----2-----0---------------3--3------]
E[----3-----2---------------0--0------]




    G                             Cadd9                               D2/F#
E[----3------------------------------0----------------------------0---]
B[----3------------------------------3----------------------------3---]
G[----0------------------------------0----------------------------2---]
D[----0------------------------------2----------------------------0---]
A[----2------------------------------3----------------------------0---]
E[----3------------------------------0----------------------------2---]



    Cadd9                      G                            Cadd9
E[----0-------------------------3-------------------------------0---]
B[----3-------------------------3-------------------------------3---]
G[----0-------------------------0-------------------------------0---]
D[----2-------------------------0-------------------------------2---]
A[----3-------------------------2-------------------------------3---]
E[----0-------------------------3-------------------------------0---]



Interlude 3

    Em7(ish)      D2/F#       C(ish)   D(ish)       Em7(ish)   D2/F#
E[---0---0-0-------0----------0--0-0-0-0----0-0-0---0-0-0------0-----]
B[---8---8-8-------3----------5--5-5-/-7----7-7-7---8-8-8------3-----]
G[---0---0-0-------2----------0--0-0-0-0----0-0-0---0-0-0------2-----]
D[---5---5-5-------0----------2--2-2-/-4----4-4-4---5-5-5------0-----]
A[---7---7-7-------0----------3--3-3-/-5----5-5-5---7-7-7------0-----]
E[---0---0-0-------2----------0--0-0-0-0----0-0-0---0-0-0------2-----]

      C(ish)   D(ish)       Em7(ish)   D2/F#
E[----0--0-0-0-0----0-0-0---0-0-0------0-----------]
B[----5--5-5-/-7----7-7-7---8-8-8------3-----------]
G[----0--0-0-0-0----0-0-0---0-0-0------2-----------]
D[----2--2-2-/-4----4-4-4---5-5-5------0-----------]
A[----3--3-3-/-5----5-5-5---7-7-7------0-----------]
E[----0--0-0-0-0----0-0-0---0-0-0------2-----------]


HOLY/MIGHTY/WORTHY (repeat)

      C(ish)   D(ish)       Em7(ish)   D2/F#
E[----0--0-0-0-0----0-0-0---0-0-0------0-----------]
B[----5--5-5-/-7----7-7-7---8-8-8------3-----------]
G[----0--0-0-0-0----0-0-0---0-0-0------2-----------]
D[----2--2-2-/-4----4-4-4---5-5-5------0-----------]
A[----3--3-3-/-5----5-5-5---7-7-7------0-----------]
E[----0--0-0-0-0----0-0-0---0-0-0------2-----------]



Comments about this tab

To add a comment for this tab, please visit the version of this guitar tab on it's home site, Christian Guitar Resources.



© 2005 MickMel - All Right Reserved - Privacy Statement