:: Home > Tabs > S > Sanctus Real > Message

Sanctus Real - Message


This tab has been rated a 5.00 out of 5 for accuracy.
(1 vote)
To rate this tab, please visit the version of this guitar tab on it's home site, Christian Guitar Resources.

Click here for a plain text version of this song (for better printing)




#----------------------------------PLEASE NOTE---------------------------------#
#This file is the author's own work and represents their interpretation of the #
#song. You may only use this file for private study, scholarship, or research. #
#------------------------------------------------------------------------------#


Artist: Sanctus Real
Song: Message
Album: Fight the Tide

All strings tuned down a half step (Eb,Ab,Db,Gb,Bb,Eb)

Intro:

Eb|---------------------------------------------------------------------
Bb|---------------------------------------------------------------------
Gb|---------------------------------------------------------------------  x4
Db|-------4-------4-------4---------------------------------------------
Ab|---5-5---0-3-3---2-2-2-----------------------------------------------
Eb|-------------------------3-3-3-3-------------------------------------
                                   \
                                    \
                                     \
Verse:                                \
                                       \
Same as intro but muted until you get to Gb on the low Eb string (play open)


Chorus: Gb back and forth between muted and unmuted

Then you play  Db  Eb  Ab  Gb ( play as D  E  A  G )

At the end of the Chorus:

Eb|---10-10-10-10-10-10-9-9---
Bb|---------------------------
Gb|---------------------------
Db|---------------------------
Ab|---------------------------
Eb|---------------------------

going into the 2nd verse play   Bb-Bb-B

not sure about the solo...

at the end of the song play:

High Eb|---2-2-3p2-3p2-2-2-3p2-3p2-2-3-3-3-14-14-15p14-15p14-14-14-15p14-15p14-14-15-15-15---


And...  that's all I've figured out 
         




Comments about this tab

LemonySnicket - 2006-07-17
I love the intro. But i just dropped the 5 and played open on the next string.

To add a comment for this tab, please visit the version of this guitar tab on it's home site, Christian Guitar Resources.



© 2005 MickMel - All Right Reserved - Privacy Statement