:: Home > Tabs > S > Sanctus Real > Deeds

Sanctus Real - Deeds


This tab has been rated a 4.75 out of 5 for accuracy.
(4 votes)
To rate this tab, please visit the version of this guitar tab on it's home site, Christian Guitar Resources.

Click here for a plain text version of this song (for better printing)




#----------------------------------PLEASE NOTE---------------------------------#
#This file is the author's own work and represents their interpretation of the #
#song. You may only use this file for private study, scholarship, or research. #
#------------------------------------------------------------------------------#


Artist: Sanctus Real
Title: Deeds
Tabbed by: Alley32191

This song supposed to be tuned a half-step down, but you can play it in reg. tuning...

Intro:

e----------------------------------------------------|
B----------------------------------------------------|
G----------------1-1-1-1-1----7-7-7-7-7----9-9-9-9-9-|
D--7-7-7-7-7-----2-2-2-2-2----7-7-7-7-7----9-9-9-9-9-|
A--7-7-7-7-7-----2-2-2-2-2----5-5-5-5-5----7-7-7-7-7-|
E--5-5-5-5-5-----0-0-0-0-0---------------------------|

Verse 1:
~play same as intro~



Pre-chorus:

e--5-5-5-5----7-7-7-7----5-5-5-5----7-7-7-7-|
B--7-7-7-7----9-9-9-9----7-7-7-7----9-9-9-9-|
G--7-7-7-7----9-9-9-9----7-7-7-7----9-9-9-9-|
D--7-7-7-7----9-9-9-9----7-7-7-7----9-9-9-9-|
A-------------------------------------------|
E-------------------------------------------|



Solo:

e----------------------------------------------------------|
B----------------------------------------------------------|
G---------2----2----------2----2-----------2----2---4^6-4--|
D---2---4----4------2---4----4-------2---4----4------------|
A----------------------------------------------------------|	
E----------------------------------------------------------|


e----------------------------------------------------------|
B----------------------------------------------------------|
G---------2----2----------2----2-----------2----2---1------|
D---2---4----4------2---4----4-------2---4----4--------4---|
A----------------------------------------------------------|	
E----------------------------------------------------------|			

Bridge: 

x2
first time-  palm mute
e-------------------------------------------|
B-------------------------------------------|
G-------------------------------------------|
D--4-4-4-4----6-6-6-6----7-7-7-7----9-9-9-9-|         
A--4-4-4-4----6-6-6-6----7-7-7-7----9-9-9-9-|
E--2-2-2-2----4-4-4-4----5-5-5-5----7-7-7-7-|



Chorus

Outro:

e---------------------------|
B---------------------------|
G---------------------------|
D--7----7----7----7-------7-|
A--7----7----7----7-------7-|
E--5----5----5----5-------5-|

well, that's it!



Comments about this tab

JohnM - 2005-07-17
Well... mostly. It's played in Drop Db, so that changes some of your chord fingerings around a bit, and thus in the intro, the later D and E are an octave lower (000xxx and 222xxx). Other than that, looks good.
jesusfreak_33 - 2006-02-17
oh, acension, you are my tab hero!!!!
jesusfreak_33 - 2006-02-17
wait, your alley32191, uh oh, I just might have another tab hero!! Good tab
gnarlynarwhal1 - 2006-03-14
where's the chorus???
alley32191 - 2006-03-27
Chorus is the same as Verse and Intro.

To add a comment for this tab, please visit the version of this guitar tab on it's home site, Christian Guitar Resources.



© 2005 MickMel - All Right Reserved - Privacy Statement