:: Home > Tabs > J > Justifide > Escape

Justifide - Escape


This tab has been rated a 5.00 out of 5 for accuracy.
(2 votes)
To rate this tab, please visit the version of this guitar tab on it's home site, Christian Guitar Resources.

Click here for a plain text version of this song (for better printing)




#----------------------------------PLEASE NOTE---------------------------------#
#This file is the author's own work and represents their interpretation of the #
#song. You may only use this file for private study, scholarship, or research. #
#------------------------------------------------------------------------------#


Artist: Justifide
Album: The Beauty of the Unknown
Song: Escape
Recording Company: Ardent Records

I changed a few of the parts from the other tab on this site
and decided not to make a huge correction.
Justifide Rules!!

Guitar 1
E---------------------------------------------------------
B-----3---------3-2-------3---------3---------3-2-------3-
G-3-2---X-X-3-2-----3-3-2---3-3-3-2---X-X-3-2-----3-3-2---
D---------------------------------------------------------
A---------------------------------------------------------
D---------------------------------------------------------
  
Guitar 2
E----------------
B----------------
G----------------
D----------------
A----------------
D----------------

Guitar 1
E---------------------------------------------------------------
B---------------------------------------------------------------
G----9-10-12-10-9-9h10p9----9h10p9-9h10p9----9-9---------------- Play on
D-12---------------------12---------------12-----12-10-----10h12 second
A--------------------------------------------------------------- time
D---------------------------------------------------------------

Guitar 2
E--------------------------------------------------------------------------
B--------------------------------------------------------------------------
G--------------------------------------------------------------------------2x 
D887-X-X-887-X-X-887-10-10-10-666-86-887-X-X-887-X-X-887-10-10-10-666-10s11         
A887-X-X-887-X-X-887-10-10-10-666-86-887-X-X-887-X-X-887-10-10-10-666-10s11
D887-X-X-887-X-X-887-10-10-10-666-86-887-X-X-887-X-X-887-10-10-10-666-10s11

Guitar 1
E----------------------------------------------------
B----------------------------------------------------
G----------------------------------------------------
D-3-7-7-8-7--8-7-7--7-8-7-8-8--3-7-7-8-7--8-77777777
A-3-7-7-8-7--8-7-7--7-8-7-8-8--3-7-7-8-7--8-77777777
D-3-7-7-8-7--8-7-7--7-8-7-8-8--3-7-7-8-7--8-77777777

Guitar 2
E----------------  
B----------------  
G-9-8-10-12-9-7-5  
D----------------  1x without guitar 1 then 
A----------------  1x with it
D----------------

Guitar 1
E----------------
B----------------
G----------------
D----------------
A----------------
D----------------

Guitar 2
E--------------------------------------------------------------------------
B--------------------------------------------------------------------------
G--------------------------------------------------------------------------2x 
D887-X-X-887-X-X-887-10-10-10-666-86-887-X-X-887-X-X-887-10-10-10-666-10s11         
A887-X-X-887-X-X-887-10-10-10-666-86-887-X-X-887-X-X-887-10-10-10-666-10s11
D887-X-X-887-X-X-887-10-10-10-666-86-887-X-X-887-X-X-887-10-10-10-666-10s11

Guitar 1
E------------------------------
B------------------------------
G-7-5--------------------------
D-----5-7-7s8-7-5--------------
A-----------------7-5-----7p6-5
D---------------------5h7------

Guitar 2
E----------------  The rhythm isnít written out here
B----------------  just play them all as sixteenth notes.
G-9-8-10-12-9-7-5  
D----------------  
A----------------  
D----------------

Guitar 1
E-------------------------------------------------------
B-------------------------------------------------------
G-------------------------------------------------------
D-3-7-7-7-8-7--8-7-7--7-8-7-8-8--3-7-7-7-8-7--8-77777777
A-3-7-7-7-8-7--8-7-7--7-8-7-8-8--3-7-7-7-8-7--8-77777777
D-3-7-7-7-8-7--8-7-7--7-8-7-8-8--3-7-7-7-8-7--8-77777777

Guitar 2
E----------------  The rhythm isnít written out here
B----------------  just play them all as sixteenth notes.
G-9-8-10-12-9-7-5  
D----------------  1x without guitar 1 then 
A----------------  1x with it
D----------------

Guitar 1
E----------------
B----------------
G----------------
D----------------
A----------------
D----------------

Guitar 2
E--------------------------------------------------------------------------
B--------------------------------------------------------------------------
G-------------------------------------------------------------------------- 
D887-X-X-887-X-X-887-10-10-10-666-86-887-X-X-887-X-X-887-10-10-10-666-10s11         
A887-X-X-887-X-X-887-10-10-10-666-86-887-X-X-887-X-X-887-10-10-10-666-10s11
D887-X-X-887-X-X-887-10-10-10-666-86-887-X-X-887-X-X-887-10-10-10-666-10s11

E-------------------------------------------------------------------------
B-------------------------------------------------------------------------
G-------------------------------------------------------------------------
D887-X-X-887-X-X-887-10-10-10-666-86-887-X-X-887-X-X-887-10-10-10-000-22-8 
A887-X-X-887-X-X-887-10-10-10-666-86-887-X-X-887-X-X-887-10-10-10-000-22-8
D887-X-X-887-X-X-887-10-10-10-666-86-887-X-X-887-X-X-887-10-10-10-000-22-8

Guitar 1
E----------------
B----------------
G----------------
D----------------
A----------------
D----------------

Guitar 2          1                       2
E---------------|--------------|        |E--------|
B---------------|-------------*|        |B--------|
G---------------|--------------|        |G--------|
D-12-8-10-15-14-|12-8-10-------|        |D-8-10-12|
A-12-8-10-15-14-|12-8-10------*|        |A-8-10-12|
D-12-8-10-15-14-|12-8-10-------|        |D-8-10-12|

Guitar 1
E---------------------
B-10-13-15-15-13-13-10
G---------------------
D---------------------
A---------------------
D---------------------

Guitar 2
E---------------------             E---------------------
B---------------------             B---------------------
G-7-7--7-10-10-7-12-12             G---------------------
D-7-7--7-10-10-7-12-12   3x then   D-000-222-333-88-10-11
A-5-5--5--8--8-5-10-10             A-000-222-333-88-10-11
D---------------------             D-000-222-333-88-10-11

Guitar 1
E---------------------------------------------------------------
B---------------------------------------------------------------
G----9-10-12-10-9-9h10p9----9h10p9-9h10p9----9-9---------------- Play on
D-12---------------------12---------------12-----12-10-----10h12 second
A--------------------------------------------------------------- time
D---------------------------------------------------------------

Guitar 2
E--------------------------------------------------------------------------
B--------------------------------------------------------------------------
G--------------------------------------------------------------------------2x 
D887-X-X-887-X-X-887-10-10-10-666-86-887-X-X-887-X-X-887-10-10-10-666-10s11         
A887-X-X-887-X-X-887-10-10-10-666-86-887-X-X-887-X-X-887-10-10-10-666-10s11
D887-X-X-887-X-X-887-10-10-10-666-86-887-X-X-887-X-X-887-10-10-10-666-10s11

Ending
Guitar 1
E------------
B------------
G------------
D------------
A------------
D------------

Guitar 2
E------------
B------------
G------------
D-8-8-7-8-8-7
A-8-8-7-8-8-7
D-8-8-7-8-8-7

Dark Tofu,
Jesus Saves



Comments about this tab

To add a comment for this tab, please visit the version of this guitar tab on it's home site, Christian Guitar Resources.



© 2005 MickMel - All Right Reserved - Privacy Statement