:: Home > Tabs > J > Justifide > Escape

Justifide - Escape


This tab has been rated a 3.50 out of 5 for accuracy.
(2 votes)
To rate this tab, please visit the version of this guitar tab on it's home site, Christian Guitar Resources.

Click here for a plain text version of this song (for better printing)




#----------------------------------PLEASE NOTE---------------------------------#
#This file is the author's own work and represents their interpretation of the #
#song. You may only use this file for private study, scholarship, or research. #
#------------------------------------------------------------------------------#


                          Justified
                           Escape

When I put this song on it was the first tab the last time i looked
So there may be quite a bit wrong with it, please send corrections so
We can get this awesome song correct! Justifide rules.

Intro 1
Guitar 1
E---------------------------------------------------------
B-----3-X-X-----3-2-------3---------3-X-X-----3-2-------3-
G-3-2-------3-2-----3-3-2-------3-2-------3-2-----3-3-2---
D---------------------------------------------------------
A---------------------------------------------------------
D---------------------------------------------------------
  
Guitar 2
E---------------------------------------------------------
B-----------------------------------3-X-X-----3-2-------3-
G---------------------------3-3-3-2-------3-2-----3-3-2---
D---------------------------------------------------------
A---------------------------------------------------------
D---------------------------------------------------------

Intro 2
Guitar 1
E---------------------------------
B---------------------------------
G---------------------------------
D-0-2-3-5-3-2-1210-121-1210-22-1-0
A---------------------------------
D---------------------------------

Guitar 2
E------------------------------------
B------------------------------------
G------------------------------------    2x without guitar 1 then
D-886-X-X-886-X-X-886-10-10-10-666-86    2x with it
A-886-X-X-886-X-X-886-10-10-10-666-86
D-886-X-X-886-X-X-886-10-10-10-666-86

Verse 1
Guitar 1
E----------------  The rhythm isnít written out here
B----------------  just play them all as sixteenth notes.
G-9-8-10-12-9-7-5  
D----------------  1x without guitar 2 then 
A----------------  1x with it
D----------------

Guitar 2
E----------------------------------------------------
B----------------------------------------------------
G----------------------------------------------------
D-3-7-7-8-7--8-7-7--7-8-7-8-88--3-7-7-8-7--8-77777777
A-3-7-7-8-7--8-7-7--7-8-7-8-88--3-7-7-8-7--8-77777777
D-3-7-7-8-7--8-7-7--7-8-7-8-88--3-7-7-8-7--8-77777777

Chorus 1
Guitar 1
E------------------------------
B------------------------------
G------------------------------
D------------------------------
A------------------------------
D------------------------------

Guitar 2
E------------------------------------
B------------------------------------
G------------------------------------    
D-886-X-X-886-X-X-886-10-10-10-666-86    
A-886-X-X-886-X-X-886-10-10-10-666-86
D-886-X-X-886-X-X-886-10-10-10-666-86

Interlude
Guitar 1
E----------------  The rhythm isnít written out here
B----------------  just play them all as sixteenth notes.
G-9-8-10-12-9-7-5  
D----------------  
A----------------  
D----------------

Guitar 2
E------------------------------
B------------------------------
G-7-5--------------------------
D-----5-7-7s8-7-5--------------
A-----------------7-5-----7p5-5
D---------------------5h7------

Verse 2
Guitar 1
E----------------  The rhythm isnít written out here
B----------------  just play them all as sixteenth notes.
G-9-8-10-12-9-7-5  
D----------------  1x without guitar 2 then 
A----------------  1x with it
D----------------

Guitar 2
E----------------------------------------------------
B----------------------------------------------------
G----------------------------------------------------
D-3-7-7-8-7--8-7-7--7-8-7-8-88--3-7-7-8-7--8-77777777
A-3-7-7-8-7--8-7-7--7-8-7-8-88--3-7-7-8-7--8-77777777
D-3-7-7-8-7--8-7-7--7-8-7-8-88--3-7-7-8-7--8-77777777

Chorus 2
Guitar 1
E------------------------------
B------------------------------
G------------------------------
D------------------------------
A------------------------------
D------------------------------

Guitar 2
E------------------------------------
B------------------------------------
G------------------------------------    
D-886-X-X-886-X-X-886-10-10-10-666-86      
A-886-X-X-886-X-X-886-10-10-10-666-86
D-886-X-X-886-X-X-886-10-10-10-666-86

Verse 3
Guitar 1
E--------------------------
B--------------------------
G--------------------------
D--------------------------
A--------------------------
D--------------------------

Guitar 2
E-----------------------------
B-----------------------------
G----------------------------- Let each ring out
D-12-10-15-14-12-10-12-7-10-12
A-12-10-15-14-12-10-12-7-10-12
D-12-10-15-14-12-10-12-7-10-12

Guitar Solo
Guitar 1
E---------------------
B-10-13-15-15-13-13-10
G---------------------
D---------------------
A---------------------
D---------------------

Guitar 2
E---------------------             E------------------
B---------------------             B------------------
G-7-7--7-10-10-7-12-12             G------------------
D-7-7--7-10-10-7-12-12   3x then   D-000-222-333-555-7
A-5-5--5--8--8-5-10-10             A-000-222-333-555-7
D---------------------             D-000-222-333-555-7

Chorus 3
Guitar 1
E---------------------------------
B---------------------------------
G---------------------------------
D-0-2-3-5-3-2-1210-121-1210-22-1-0
A---------------------------------
D---------------------------------

Guitar 2
E------------------------------------
B------------------------------------
G------------------------------------    
D-886-X-X-886-X-X-886-10-10-10-666-86  1x without Guitar 1    
A-886-X-X-886-X-X-886-10-10-10-666-86  1x with it
D-886-X-X-886-X-X-886-10-10-10-666-86

Ending
Guitar 1
E-------
B-------
G-------
D-------
A-------
D-------

Guitar 2
E------------
B------------
G------------
D-8-8-7-8-8-7
A-8-8-7-8-8-7
D-8-8-7-8-8-7
















Comments about this tab

I am here - 2005-06-27
I have a correction for in the beginning
when it turns rock the solo thing.


Guitar 1
E---------------------------------------------------------------
B---------------------------------------------------------------
G----9-10-12-10-9-9h10p9----9h10p9-9h10p9----9-9----------------
D-12---------------------12---------------12-----12-10-----10h12
A---------------------------------------------------------------
D---------------------------------------------------------------
I am here - 2005-06-27
Could some people leave some comments please
I am here - 2005-07-06
The other tab on this site is better
just so you know

To add a comment for this tab, please visit the version of this guitar tab on it's home site, Christian Guitar Resources.



© 2005 MickMel - All Right Reserved - Privacy Statement