:: Home > Tabs > T > Third Day > It's A Shame

Third Day - It's A Shame


This tab has been rated a 4.50 out of 5 for accuracy.
(4 votes)
To rate this tab, please visit the version of this guitar tab on it's home site, Christian Guitar Resources.

Click here for a plain text version of this song (for better printing)




#----------------------------------PLEASE NOTE---------------------------------#
#This file is the author's own work and represents their interpretation of the #
#song. You may only use this file for private study, scholarship, or research. #
#------------------------------------------------------------------------------#


I posted this on someone elses tab and since then I realize
that this is exactly how to play it.

Capo 9th (all Relative to capo)

e-----0-------0------
b-------3-----------3
g---2-------2---0-2--
d-0-------4----------        2x
a--------------------
E--------------------


This is how it's played on the album.  On Live Wire I think Brad 
messes up because the outro is played like this but the intro is like this.

Capo 9th (relative to capo)

e----0-------0-------0--------0-------0--------
b------3-------3----------------3-------3-----3
g--2-------2-----0-2--------2-------2-----0-2--
d-0------4----------------0-------4------------
a----------------------------------------------
E----------------------------------------------

Anyway this is the right way to play this part.  If you don't think so watch
the Live Wire DVD for this song.  Brad does capo it on the 9th and picks the 
strings exactly like this.  Enjoy:)(:



Comments about this tab

lakey - 2005-06-06
great tab this is, great tab for a great song, thanks man
RockForGOD01 - 2006-01-25
Hey nice job but i think that into goes like this
12th Fret
E--0-2-0 4-2-0-5--------
B-----------------------
G-----------------------
D-----------------------
A-----------------------
E-----------------------
x2
C ya
RockForGOD01 - 2006-01-25
i think that the intro
Soz guys c ya

To add a comment for this tab, please visit the version of this guitar tab on it's home site, Christian Guitar Resources.



© 2005 MickMel - All Right Reserved - Privacy Statement