:: Home > Tabs > S > Sanctus Real > I Love You

Sanctus Real - I Love You


This tab has been rated a 5.00 out of 5 for accuracy.
(4 votes)
To rate this tab, please visit the version of this guitar tab on it's home site, Christian Guitar Resources.

Click here for a plain text version of this song (for better printing)




#----------------------------------PLEASE NOTE---------------------------------#
#This file is the author's own work and represents their interpretation of the #
#song. You may only use this file for private study, scholarship, or research. #
#------------------------------------------------------------------------------#


Name: I Love You
Artist: Sanctus Real
Album: Say It Loud
*Tune down 1/2 step

Intro:
]------------]
]--2--2--3--3]
]------------] repeat
]------------]
]--0--0--0--0]
]------------]

Verses:
]------------]
]--2--2--3--3]
]------------] 4x
]------------]
]--0--0--0--0]
]------------]

Pre-chorus:
]------------------------]
]--3--3--3--3--0--0--3--3]
]------------------------]
]--------0--0--------0--0]
]------------------------]
]--3--3--------0--0------]

Chorus:
]------------------------]
]--2--2--2--2--0--0--3--3]
]------------------------]
]--------------------0--0]
]--0--0------------------]
]--------2--2--0--0------]

Outro:
]----------------]
]--3--3/5-------2]
]----------4/2---]
]----------------]
]---------------0]
]----------------]


tabbed by andy miller



Comments about this tab

Music_lover - 2005-05-11
100% correct. Good job.
Andy Miller - 2005-06-07
i made a small mistake in the outro, so here it is:
)--------------)
)-3-3/5/3-----2)
)---------4/2--)
)--------------)
)-------------0)
)--------------)
-Andy Miller
fortunatexf0ol - 2006-06-12
great tab! it helped me alot
God Bless
<3 dee
rokrdude - 2006-08-02
actually this song can be easilier played by tuning standard exept tune the top string down 1/2 step

the outro should be


e-------------------
b-------------------
g-6-6/8\6------5----
d---------8\6-------
the strat guy - 2006-12-06
Good Job

Question- Does anybody know how to get the tab lines
up when you are submiting

To add a comment for this tab, please visit the version of this guitar tab on it's home site, Christian Guitar Resources.



© 2005 MickMel - All Right Reserved - Privacy Statement