:: Home > Tabs > S > Sanctus Real > The fight song

Sanctus Real - The fight song


This tab has been rated a 4.00 out of 5 for accuracy.
(1 vote)
To rate this tab, please visit the version of this guitar tab on it's home site, Christian Guitar Resources.

Click here for a plain text version of this song (for better printing)




#----------------------------------PLEASE NOTE---------------------------------#
#This file is the author's own work and represents their interpretation of the #
#song. You may only use this file for private study, scholarship, or research. #
#------------------------------------------------------------------------------#


intro

e------------------------------------------------------------
b------------------------------------------------------------
g------------------------------------------------------------
d------------------------------------------------66-66666666-
a---10----10---6---6---10---8---6---6---10----10-66-66666666-
e-8----11----4---4---8----6---4---4---8----11----44-44444444-
                                                    pm.......


little solo

e---------------------------------------
b-16-13-11------------------------------
g----------12-10/12/8-13-13-12-10-8/10/8


verse 
bass at first with guitar playing muted strings every couple of counts, then 
this
(strumming not shown)
g-8-10-12-10-8-7-5-7-8-13-12-10-
d-x-x--x--x--x-x-x-x-x-x--x--x--
a-6-8--10-8--6-5-3-5-6-11-10-8--

chorus

g-8-----
d-8-8-6-
a-6-8-6-
e---6-4-   x2

verse 2

d-10-12-8-10-8-6
a-10-12-8-10-8-6
e-8--10-6-8--6-4
  pm............

bridge 1

g-5-5-7--3-3-3--8-8-8-8---5-5--3--8-8-8-8-8
d-5-5-7--3-3-3--8-8-8-8---5-5--3--8-8-8-8-8
a-3-3-5--1-1-1--6-6-6-6---3-3--1--6-6-6-6-6   x2

bridge 2(gtr 1)

d-10-12-6
a-10-12-6
e-8--10-4   x3
  pm.....

bridge 2(gtr 2)

d-10-12---------------6----10-12-------------------10-12-6-
a-10-12-----6--------6-6---10-12-----6--------6----10-12-6-
e-8--10-4444-444-4444---44-8--10-4444-444-4444-44--8--10-4-
  pm......................................................

end chorus
gtr 1 play regular chorus
gtr 2 play this

b-----------------------------------------
g-8-8-10-10-13-12-10-8-8-10-10-13-12-10-8-
d-----------------------------------------

and thats all, if u have any questions or corrections or anything, leave a 
comment:-D God bless. Josh~~~~~~



Comments about this tab

jsoccer - 2006-02-01
looks good, but i havent tried it on my yet. once i try it ill rate it
jsoccer - 2006-04-20
very nice, although the bridge doesnt sound right. but otherwise very well done

To add a comment for this tab, please visit the version of this guitar tab on it's home site, Christian Guitar Resources.



© 2005 MickMel - All Right Reserved - Privacy Statement