:: Home > Tabs > G > Ghoti Hook > Guitar Song, The

Ghoti Hook - Guitar Song, The


This tab has not yet been rated for accuracy.To rate this tab, please visit the version of this guitar tab on it's home site, Christian Guitar Resources.

Click here for a plain text version of this song (for better printing)




#----------------------------------PLEASE NOTE---------------------------------#
#This file is the author's own work and represents their interpretation of the #
#song. You may only use this file for private study, scholarship, or research. #
#------------------------------------------------------------------------------#


+------------------------------------------+
\  Artist     :  Ghoti Hook                 \
/  Song       :  The Guitar Song            /
\  Instrument :  Guitar                     \
/  Tabbed by  :  Mike!    /
\___________________________________________\

  +---+---+---+---+---+---+---+---+---+
  | C | F | A | E | Bb| G | G*| F*| E*|
  +---+---+---+---+---+---+---+---+---+
e-| - | - | - | - | - | - | - | - | - |
B-| - | - | - | - | - | - | - | - | - |
G-| 5 | - | - | - | 3 | - | 12| 10| 9 |
D-| 5 | 3 | 7 | 2 | 3 | 5 | 12| 10| 9 |
A-| 3 | 3 | 7 | 2 | 1 | 5 | 10| 8 | 7 |
E-| - | 1 | 5 | 0 | - | 3 | - | - | - |
  +---+---+---+---+---+---+---+---+---+

    C               F
Hey Kitten, whatcha doin'?
      A  E        F
Wanna play the guitar?
         C
You say, what's that sound
       F
Coming out of the hole in the wood?
         C
You say, what's that sound
       F
Coming out of the hole in the wood?
         C
You say, what's that sound
       Bb                     F      C F
Coming out of the hole in the wood?
            C
It's the guitar

G

    C             F
Hey baby, whatcha doin'?
A                 E                  F
Playin' with your rattle and plastic car?
         C
You say, what's that sound
       F
Coming out of the hole in the wood?
         C
You say, what's that sound
       F
Coming out of the hole in the wood?
         C
You say, what's that sound
       Bb                     F      C F
Coming out of the hole in the wood?
            C   G
It's the guitar

During the solo, Guitar 2 plays the same chord progression played
during the verses with a palm mute while Guitar 1 plays the following...
Guitar 1:
e-|-------------------------------------|
B-|-------------5-5-5-6-5-6-5---------6-|
G-|-5-5-5-7-7-7---------------7-5---5-5-|
D-|-------------------------------7-----|
A-|-------------------------------------|
E-|-------------------------------------|

e-|-------3-3-3-3-3-3-3-3-3-5-3-3-1-1-1-----1-|
B-|-----5-5-5-5-5-5-5-5-5-5-5-5-5-3-1---1---1-|
G-|-7-5-----------------------------2-----2-2-|
D-|-------------------------------------------|
A-|-------------------------------------------|
E-|-------------------------------------------|

e-|-------------------------------------------|
B-|-----4^4^4^4^4^4^4^4^4^4^----------------6-|
G-|-7-5---------------------7-5-7-5-------5-5-|
D-|---------------------------------7---7-----|
A-|-----------------------------------8-------|
E-|-------------------------------------------|

e-|--------------------------5-4-4-2-----------------|
B-|-----4^4^4^4^4^4^4^4^4^4^-6-5-5-3-5-6-----------6-|
G-|-7-5------------------------------5---5-------5-5-|
D-|----------------------------------------7---7-----|
A-|------------------------------------------8-------|
E-|--------------------------------------------------|

e-|--------------------------12-10-8--7-5-6-------6-5-|
B-|-----4^4^4^4^4^4^4^4^4^4^-14-12-10-9-7---6---6---6-|
G-|-7-5---------------------------------------7-------|
D-|---------------------------------------------------|
A-|---------------------------------------------------|
E-|---------------------------------------------------|

e-|------------------------------|
B-|-----4^4^4^4^-----------------|
G-|-7-5----------7-5-7-5---7\5---|
D-|----------------------7-----7-|
A-|------------------------------|
E-|------------------------------|

G* F* E* F* E* D

    C              F
Hey mama, where ya goin'?
A                 E*         F*
I hope you're not going very far
        C
Because what's that sound
       F
Coming out of the hole in the wood?
        C
Tell me what's that sound
       F
Coming out of the hole in the wood?
     C
Hey, what's that sound
       Bb                     F      C F
Coming out of the hole in the wood?
            C  F  \
It's the guitar    \
            C  F    \
It's the guitar      \  x4
            C  G     /
It's the guitar     /
            F      /
It's the guitar   /



Comments about this tab

To add a comment for this tab, please visit the version of this guitar tab on it's home site, Christian Guitar Resources.



© 2005 MickMel - All Right Reserved - Privacy Statement