:: Home > Tabs > S > Sanctus Real > Things Like You

Sanctus Real - Things Like You


This tab has been rated a 4.40 out of 5 for accuracy.
(5 votes)
To rate this tab, please visit the version of this guitar tab on it's home site, Christian Guitar Resources.

Click here for a plain text version of this song (for better printing)




#----------------------------------PLEASE NOTE---------------------------------#
#This file is the author's own work and represents their interpretation of the #
#song. You may only use this file for private study, scholarship, or research. #
#------------------------------------------------------------------------------#


Things Like You
Sanctus Real
Fight The Tide
 2004 Sparrow Records

This song is really easy to play. It's actually just basic bar chords.
Obviously it's played w/ an acoustic and an electric guitar but they both play
the same chords. Here they go!

Note: Song is best played with 2 fingers instead of 3

Intro (acoustic)- The INTRO tabs are the same tabs as the 2ND VERSE and CHORUS

e--------------------------------------------------------
B---------8--8-------------------------------------------
G---8--8--8--8---8--8--8--8---5--5--5--5-----------------
D---8--8--8--8---8--8--8--8---5--5--5--5---6--6--6--6----
A---6--6--6--6---8--8--8--8---3--3--3--3---6--6--6--6----
E---X------------6--6--6--6----------------4--4--4--4----


PRE CHORUS

e-----------------------------------------------------------------
B--3--3--3--3---5--5--5--5---3--3--3--3---5--5--5--5--------------
G--3--3--3--3---5--5--5--5---3--3--3--3---5--5--5--5--------------
D--3--3--3--3---5--5--5--5---3--3--3--3---5--5--5--5---6--6--6--6-
A--1--1--1--1---3--3--3--3---1--1--1--1---3--3--3--3---6--6--6--6-
E------------------------------------------------------4--4--4--4-

BRIDGE

e----------------------------------------------------------------------
B--3--3--3--3-----------------------------3--3--3--3----------------8--
G--3--3--3--3---5--5--5--5----------------3--3--3--3---5--5--5--5---8--
D--3--3--3--3---5--5--5--5---6--6--6--6---3--3--3--3---5--5--5--5---8--
A--1--1--1--1---3--3--3--3---6--6--6--6---1--1--1--1---3--3--3--3---6--
E----------------------------4--4--4--4--------------------------------


e------------------------------------------------------------------------
B--3--3--3--3---5--5--5--5--5--5-----------------------------------------
G--3--3--3--3---5--5--5--5--5--5---8--8--8---8--8--8---5--5--5-----------
D--3--3--3--3---5--5--5--5--5--5---8--8--8---8--8--8---5--5--5---6--6--6-
A--1--1--1--1---3--3--3--3--3--3---6--6--6---8--8--8---3--3--3---6--6--6-
E--------------------------------------------6--6--6-------------4--4--4-

(CHORUS)

End with...

e---
B---
G---
D--6
A--6
E--4

   That's about it! If you play along while the songs playing it should sound
   exact. With Christ'a Love- Clint



Comments about this tab

LOTRFanatic - 2005-04-15
hey dude where is the solo
Akira - 2005-05-27
What tuning is it in?! It sounds horrible on my acoustic in regular tuning!
AFewLessTares - 2005-06-02
On the intro...I belive the 3rd chord should be an F#m not a C.
JohnM - 2005-06-24
Basically this song is D A Em G with Capo 1.
baney - 2005-06-27
Yeah, JohnM, that's basically it. This was my first tab ever so im learning!
guitarkid1 - 2007-03-14
where is the guitar solo someone please add it that is pretty much the only reason i looked this tab up

To add a comment for this tab, please visit the version of this guitar tab on it's home site, Christian Guitar Resources.



© 2005 MickMel - All Right Reserved - Privacy Statement