:: Home > Tabs > G > Ghoti Hook > Samson

Ghoti Hook - Samson


This tab has not yet been rated for accuracy.To rate this tab, please visit the version of this guitar tab on it's home site, Christian Guitar Resources.

Click here for a plain text version of this song (for better printing)




#----------------------------------PLEASE NOTE---------------------------------#
#This file is the author's own work and represents their interpretation of the #
#song. You may only use this file for private study, scholarship, or research. #
#------------------------------------------------------------------------------#


Song: Samson
Artist: Ghoti Hook
Album: Sumo Surprise
Words and Music by Joel and Conrad
(c)1996 Spinning Audio Vortex Pub. (BMI)
Tabbed out by Brian 

Super Spiffy Intro Thing:
   A                       E
e|-------------------------------------------------|
b|-------------------------------------------------|
g|-------------------------------------------------|
d|-------------------------------------------------|
a|-------7---7-------7---7-------2---2-------7---7-|
E|-5-5-5---5---5-5-5---5---0-0-0---0---5-5-5---5---|

Palm Mute-------------------------------------->

(a few times:)

Then:

A (distortion let up on palm mute)

D B D E(h) X2?  (E(h) is like this:

e|---|
b|---|
g|-9-|
d|-9-|
a|-7-|
E|---|


then repeat intro thing a few times... then distortion part

THEN....
   A E F# E D E D A
e|------------------|
b|------------------|
g|---9-11-9-7-9-7---|
d|-7-9-11-9-7-9-7-7-|
a|-7-7-9--7-5-7-5-7-|
E|-5--------------5-|

End that part on A

Kewl little clean riff:

e|-------------0-2-0-------|
b|-------------------------|
g|-2-4-2-2-4-2-------2-4-2-|
d|-------------------------|
a|-------------------------|
E|-------------------------|

A ~~~
Girls are nuthin but TROUBLE!



Comments about this tab

To add a comment for this tab, please visit the version of this guitar tab on it's home site, Christian Guitar Resources.



© 2005 MickMel - All Right Reserved - Privacy Statement