:: Home > Tabs > G > Ghoti Hook > On the Road Again

Ghoti Hook - On the Road Again


This tab has been rated a 5.00 out of 5 for accuracy.
(1 vote)
To rate this tab, please visit the version of this guitar tab on it's home site, Christian Guitar Resources.

Click here for a plain text version of this song (for better printing)




#----------------------------------PLEASE NOTE---------------------------------#
#This file is the author's own work and represents their interpretation of the #
#song. You may only use this file for private study, scholarship, or research. #
#------------------------------------------------------------------------------#


+------------------------------------------+
\  Artist     :  Ghoti Hook                 \
/  Song       :  On The Road Again          /
\  Instrument :  Guitar                     \
/  Tabbed by  :  Mike!    /
\___________________________________________\

  +---+---+---+---+---+
  | G#| C | Bb| C#| D#|
  +---+---+---+---+---+
e-| - | - | - | - | - |
B-| - | - | - | - | - |
G-| - | 5 | 3 | 6 | 8 |
D-| 6 | 5 | 3 | 6 | 8 |
A-| 6 | 3 | 1 | 4 | 6 |
E-| 4 | - | - | - | - |
  +---+---+---+---+---+

Intro: G# C Bb C# D# G#  (x2)

       G#
On the road again
                                C
I just can't wait to get on the road again.
                          Bb
The life I love is makin' music with my friends,
    C#              D#               G#
And I can't wait to get on the road again

       G#
On the road again. 
                       C
Goin' places that I've never been
                         Bb
Seein' things that I may never see again.
C#                  D#           G#
I can't wait to get on the road again

       C#
On the road again.
                                  G#
Like a band of gypsies we go down highway
          C#
We're the best of friends. 
                                      G#                D#
Insisting that the world keep turnin' our way.  And our way

          G#
Is on the road again
                                C
I just can't wait to get on the road again.
                          Bb
The life I love is makin' music with my friends,
    C#              D#               G#
And I can't wait to get on the road again

e-|------------------------------------------------------------------|
B-|------------------------------------------------------------------|
G-|------------------------------------------------------------------|
D-|----9-10--10-9-10-11-10-8----9-10--10-9-10-11-10-8----10-8-8----8-|
A-|-11-----------------------11-----------------------11--------10---|
E-|------------------------------------------------------------------|

e-|-----------------------------------11-8^--8-7-8-9-8-7---11-8-|
B-|------------------------------------------------------9------|
G-|-------------8-----------------8-8---------------------------|
D-|-10-11-11-11---10-10-10--------------------------------------|
A-|------------------------10-11--------------------------------|
E-|-------------------------------------------------------------|

e-|-8-9-8-11----15-13--13-11------------------------11----15----16--13-11-|
B-|----------13--------------13-11----------11-9-11----11-----------------|
G-|--------------------------------13-10-10------------------15-----------|
D-|-----------------------------------------------------------------------|
A-|-----------------------------------------------------------------------|
E-|-----------------------------------------------------------------------|

       C#
On the road again.
                                  G#
Like a band of gypsies we go down highway
          C#
We're the best of friends. 
                                      G#                D#
Insisting that the world keep turnin' our way.  And our way

          G#
Is on the road again
                                C
I just can't wait to get on the road again.
                          Bb
The life I love is makin' music with my friends,
    C#              D#               G#
And I can't wait to get on the road again
    C#              D#               G#
And I can't wait to get on the road again
    C#                  D#           G#
And I can't wait to get on the road again



Comments about this tab

EnerJ - 2004-11-28
this tab was OK but the solo needs to be fixed. The solo is way off.

To add a comment for this tab, please visit the version of this guitar tab on it's home site, Christian Guitar Resources.



© 2005 MickMel - All Right Reserved - Privacy Statement