:: Home > Tabs > G > Ghoti Hook > Never

Ghoti Hook - Never


This tab has not yet been rated for accuracy.To rate this tab, please visit the version of this guitar tab on it's home site, Christian Guitar Resources.

Click here for a plain text version of this song (for better printing)




#----------------------------------PLEASE NOTE---------------------------------#
#This file is the author's own work and represents their interpretation of the #
#song. You may only use this file for private study, scholarship, or research. #
#------------------------------------------------------------------------------#


Song:Never
Artist:Ghoti Hook
album:Sumo Surprise
re:  corrections for never

       

song is in key of Aminor-----no sharps or flats
guitar one on intro:
e|-------------------------------------------------------------------------|
b|-------------------------------------------------------------------------|
g|-5-----7-----5---5-----5-----5---4-----4-----4---2-----2-----2-----------|
d|---7-7---7-7---7---3-3---3-3---3---5-5---5-5---5---2-2---2-2---2---------|
a|-------------------------------------------------------------------------|
E|-------------------------------------------------------------------------|
there is a second guitar part at intro which plays harmony, it is exactly 
a perfect third higher than melody....i don't have exact notes but
E is 3rd higher than C, C is third higher than A......use aminor scale to 
figure out.........also should note that the intro and solo are grouped so 
that first note of each new "chord" is last note in measure of previous
chord
look at solo if confused.

the chords that they start at 20 seconds and play through verse are
following:
    Ami  Amisus4   Ami    F  F(w/ a b5th) F    G   Gsus4  G  Ami  Ami(ma7)
B|----------------------|--------------------|--------------|-------------|
G|*--5------7-------5---|--5----4----------5-|--4-----5---4-|-2----1---1-*|
D|*--7------7-------7---|--3----3----------3-|--5-----5---5-|-2----2---2-*|
A|----------------------|--------------------|--------------|-------------|
The solo part is a little wacky, and confusing, cuz there are again two
guitar parts......the | marks start of measure while () mark start and end
of each similar chord grouping.......after third measure I stopped listing 
different chord groupings, there are four lines for each guitar, the four
lines of guitar one are listed first, the four lines for guitar 2 come
after those, this part starts off
B|-------------------|----------------|---------------------|-----------------
G|9------9-------9---|7----7-----7)---|10-----10------10)---|9------9------9--
D|-10-10---10-10---(9|--9-9--9-9---(12|--12-12---12-12----10|-10-10---10-10--7
A|-------------------|----------------|---------------------|-----------------
and continues into this and etc.
B|--------------|--------------|---------------|-----------------|
G|5----5-----5--|7----7-----7--|4----4-----4---|2-----2-----2----|
D|-7-7---7-7---9|--9-9--9-9---5|--5-5---5-5---2|--2-2---2-2----10|
A|--------------|--------------|---------------|-----------------|
third line
B|-------------------|---------------|--------------------|-----------------|
G|9------10-------9--|7----9-----7---|10-----12------10---|9-----10------9--|
D|-10-10---10-10---9-|--9-9--9-9---12|--12-12---12-12---10|-10-10---10-10--7|
A|-------------------|---------------|--------------------|-----------------|
4th and last line in solo for guitar one         strummed repeatedly
B|--------------|--------------|---------------|-----------------|
G|5----7-----5--|7----9-----7--|4----5-----4---|-2-2-2-etc....---|
D|-7-7---7-7---9|--9-9--9-9---5|--5-5---5-5---2|-0-0-0-----------|
A|--------------|--------------|---------------|-----------------|

this is first line of solo for guitar two(comes in after one time for
guitar one)first line of solo
B|--------------|--------------|---------------|-----------------|
G|5----5-----5--|4----4-----4--|7----7-----7---|-5-----5-----5---|
D|-7-7---7-7---5|--5-5--5-5---9|--9-9---9-9---7|---7-7---7-7----3|
A|--------------|--------------|---------------|-----------------|
second line
B|--------------|--------------|---------------|-----------------|
G|5----5-----5--|3----4-----4--|9----9-----9---|-5-----5-----5---|
D|-3-3---3-3---3|--3-3--3-3---9|--9-9---9-9---7|---7-7---7-7----7|
A|--------------|--------------|---------------|-----------------|
third line
B|--------------|--------------|---------------|-----------------|
G|5----5-----5--|4----4-----4--|7----7-----7---|-5-----5-----5---|
D|-7-7---7-7---5|--5-5--5-5---9|--7-7---7-7---7|---7-7---7-7----3|
A|--------------|--------------|---------------|-----------------|
fourth line 
B|--------------|--------------|---------------|-----------------|
G|2----2-----2--|4----4-----4--|0----0-----0---|-2-2-2-----------|
D|-3-3---3-3---5|--5-5--5-5---2|--2-2---2-2---2|-0-0-0-----------|
A|--------------|--------------|---------------|-----------------|

then after the solo you basically play chord forms of first two measures
that should be it
hombre321@yahoo.com



Comments about this tab

To add a comment for this tab, please visit the version of this guitar tab on it's home site, Christian Guitar Resources.



© 2005 MickMel - All Right Reserved - Privacy Statement