:: Home > Tabs > G > Ghoti Hook > Middle Ground

Ghoti Hook - Middle Ground


This tab has not yet been rated for accuracy.To rate this tab, please visit the version of this guitar tab on it's home site, Christian Guitar Resources.

Click here for a plain text version of this song (for better printing)




#----------------------------------PLEASE NOTE---------------------------------#
#This file is the author's own work and represents their interpretation of the #
#song. You may only use this file for private study, scholarship, or research. #
#------------------------------------------------------------------------------#


Author/Artist: Ghoti Hook
Title: Middle Ground
Album: Banana Man
Transcribed by: Jeff Gosc
Email: FiF73@aol.com
------------------------------------------------------------------------------
------------------------------------------------------------------------------
--7-7-7-7-7-7-7-7----5-5-5-5-5-5-5-5----7-7-7-7-7-7-7-7----10-10-10-10--------
--7-7-7-7-7-7-7-7----5-5-5-5-5-5-5-5----7-7-7-7-7-7-7-7----10-10-10-10--------
--5-5-5-5-5-5-5-5----3-3-3-3-3-3-3-3----5-5-5-5-5-5-5-5-----8--8--8--8--------
--5-5-5-5-5-5-5-5----3-3-3-3-3-3-3-3----5-5-5-5-5-5-5-5-----8--8--8--8--------
                         play at :00 and :54                                  
-----------------|------------------------------------------------------------
-----------------|------------------------------------------------------------
--12-12-12-12----|----7-7-7-7-7-7-7-7----5-5-5-5-5-5-5-5----------------------
--12-12-12-12----|----7-7-7-7-7-7-7-7----5-5-5-5-5-5-5-5----5-5-5-5-5-5-5-5---
--10-10-10-10----|----5-5-5-5-5-5-5-5----3-3-3-3-3-3-3-3----5-5-5-5-5-5-5-5---
--10-10-10-10----|----5-5-5-5-5-5-5-5----3-3-3-3-3-3-3-3----3-3-3-3-3-3-3-3---
                                     play at :27 1:05 and 2:39                
------------------------------------------------------------------------------
------------------------------------------------------------------------------
---------------------7-7-7-7-7-7-7-7----5-5-5-5-5-5-5-5-----------------------
--3-3-3-3-3-3-3-3----7-7-7-7-7-7-7-7----5-5-5-5-5-5-5-5----3-3-3-3-3-3-3-3----
--3-3-3-3-3-3-3-3----5-5-5-5-5-5-5-5----3-3-3-3-3-3-3-3----3-3-3-3-3-3-3-3----
--1-1-1-1-1-1-1-1----5-5-5-5-5-5-5-5----3-3-3-3-3-3-3-3----1-1-1-1-1-1-1-1----
                                                                              
---------------------|----------|-----------------|-------------|-------------
---------------------|----------|-----------------|-------------|-------------
---------------------|----7-----|---7--5-----5----|----7---9----|-------------
--5-5-5-5-5-5-5-5----|----7-----|---7--5--5--5----|----7---9----|----3--------
--5-5-5-5-5-5-5-5----|----5-----|---5--3--5--3----|----5---7----|----3--------
--3-3-3-3-3-3-3-3----|----5-----|---5--3--3--3----|----5---7----|----1--------
                     :49 and 1:27   1:31 and 2:18       3:00        3:06



Comments about this tab

To add a comment for this tab, please visit the version of this guitar tab on it's home site, Christian Guitar Resources.



© 2005 MickMel - All Right Reserved - Privacy Statement