:: Home > Tabs > S > Sanctus Real > The Show

Sanctus Real - The Show


This tab has been rated a 5.00 out of 5 for accuracy.
(3 votes)
To rate this tab, please visit the version of this guitar tab on it's home site, Christian Guitar Resources.

Click here for a plain text version of this song (for better printing)




#----------------------------------PLEASE NOTE---------------------------------#
#This file is the author's own work and represents their interpretation of the #
#song. You may only use this file for private study, scholarship, or research. #
#------------------------------------------------------------------------------#


Sanctus Real
The Show

Tuning: Eb Ab Db Gb Bb Eb

Intro and Verse-
Eb[------------------------------------------------]
Bb[--10---10-10---10---10-10---9---9-9---9---9-9---]
Gb[--6----6--6----6----6--6----6---6-6---6---6-6---]
Db[--7----7--7----7----7--7----6---6-6---6---6-6---]
Ab[------------------------------------------------]
Eb[------------------------------------------------]

Chorus
        1st, 2nd and 4th time                    3rd time
Eb[-----------------------------------|-----------------------------------]
Bb[-----------------------------------|-----------------------------------]
Gb[--7-7-7-7-6-6-6-6-1-1-1-1-1-1-1-1--|--7-7-7-7-6-6-6-6-4-4-4-4-4-4-4-4--]
Db[--7-7-7-7-7-7-7-7-2-2-2-2-2-2-2-2--|--7-7-7-7-7-7-7-7-2-2-2-2-2-2-2-2--]
Ab[--9-9-9-9-7-7-7-7-2-2-2-2-2-2-2-2--|--9-9-9-9-7-7-7-7-2-2-2-2-2-2-2-2--]
Eb[--5-5-5-5-5-5-5-5-0-0-0-0-0-0-0-0--|--5-5-5-5-5-5-5-5-0-0-0-0-0-0-0-0--]

then you go back to the verse and it does it the same way as the first time

the chorus is also the same

BRIDGE-
Eb[-------------------------------------------
Bb[-------------------------------------------
Gb[-------------------------------------------
Db[-9-9-9-9-9-9-9-11-12-12-12-12-12-12-12-12--
Ab[-9-9-9-9-9-9-9-11-12-12-12-12-12-12-12-12--
Eb[-7-7-7-7-7-7-7-7--10-10-10-10-10-10-10-10--

----------------------------------]
----------------------------------]
----------------------------------]
-7-7-7-7-7-7-7-7-6-6-6-6-6-6-6-6--]
-7-7-7-7-7-7-7-7-7-7-7-7-7-7-7-7--]
-5-5-5-5-5-5-5-5-4-4-4-4-4-4-4-4--]

Then at the solo section, the rythm guitar plays the same thing as the bridge,
and the solo goes:
Eb[-------------------------------------------------------12--10--9-10-9--17-]
Bb[--------------------10---13^--9----10-9-10-9-10-9-9-----------------------]
Gb[--9--7--6/7^-7--------------------------------------9---------------------]
Db[----------------7---------------------------------------------------------]
Ab[--------------------------------------------------------------------------]
Eb[--------------------------------------------------------------------------]

On the chorus (or actually half a chorus) where it is just gitar strumming,
it goes:
Eb[---------------------]
Bb[--7------5------0----]
Gb[--7------6------9----]
Db[--7------7------9----]
Ab[--9------7------7----]
Eb[---------------------]
repeat that, then go into the chorus like it is originally played ( except 
you start on the third time)
Then it plays the whole chorus like it is originaly played, then it plays
the bridge
Then it ends on that chord progresson where it is just guitar and vocals.

That's it.
Correct or add anything if you want to.
Ya'll keep rockin. . . JO!!!
brandon- JO!!!



Comments about this tab

SRguitarfrk444 - 2005-02-12
ok intro is defiantly wrong...sounds nothing like it...its a half step down and its played like so( i dont feel like typing out every time he hits it so im just ganna give you the basic chords.)

e-xx-4-4-xx-4-4-xx-2-2-xx-0-0
B-xx-5-5-xx-5-5-xx-2-2-xx-0-0
G-xx-6-6-xx-4-4-xx-2-2-xx-1-1
jpierce238 - 2006-01-10
try this into
-------- -------- ----------- ----------- -------------------------
-------- -------- ----------- ----------- -------------------------
----10-- ------6- --------10- --------8-- -------------------------
----10--x4------6-x4--------10-x4--------8--x4-------------------------
88---8-- --44--4- ---88----8- ----66--6-- -------------------------
-------- -------- ----------- ----------- -------------------------
power chord style - 2 downstrokes and up on the chords

does this sound right to anyone?
jpierce238 - 2006-01-10
tab messed up
chords are f, G#, f, and eb

To add a comment for this tab, please visit the version of this guitar tab on it's home site, Christian Guitar Resources.



© 2005 MickMel - All Right Reserved - Privacy Statement