:: Home > Tabs > C > Camp, Jeremy > I Wait for the Lord

Jeremy Camp - I Wait for the Lord


This tab has been rated a 2.75 out of 5 for accuracy.
(8 votes)
To rate this tab, please visit the version of this guitar tab on it's home site, Christian Guitar Resources.

Click here for a plain text version of this song (for better printing)




#----------------------------------PLEASE NOTE---------------------------------#
#This file is the author's own work and represents their interpretation of the #
#song. You may only use this file for private study, scholarship, or research. #
#------------------------------------------------------------------------------#


WRITTEN BY SCOTT CUNNINGHAM
PERFORMED BY JEREMY CAMP ON 'CARRIED ME: THE WORSHIP PROJECT'
LABEL: BEC RECORDINGS
REALEASED 2004-02-10

INTRO
E|------|------|------|------|
B|------|------|------|------|
G|----0-|---0--|----0-|---0--|
D|----2-|---4--|----2-|---4--|
A|----2-|-5----|-33---|-5----|
E|-00---|------|------|------|

E|------|------|------|---3---|---3---|
B|------|------|------|---3---|---4---|
G|----0-|---0--|----0-|---0---|---2---|
D|----2-|---4--|----2-|---0---|---0---|
A|----2-|-5----|-33---|---2---|---0---|
E|-00---|------|------|---3---|---2---|

CHORUS
C     G    D/F#m   Em
C     G    D/F#m
C     G    D/F#m   Em
C     D

BRIDGE
C     Em   D/F#m
G          D/F#m   Em
C     Em   D/F#m
B



Comments about this tab

To add a comment for this tab, please visit the version of this guitar tab on it's home site, Christian Guitar Resources.



© 2005 MickMel - All Right Reserved - Privacy Statement